Major Tom

Peter Schilling

Composição de: David Lodge / Peter Schilling
Intro:

             10x                              2x
G|------------|-------------------|------------|-------------------|
D|------------|--2-3-2-3-2-3-2-3--|------------|--2-3-2-3-2-3-2-3--|
A|-----2-0h1--|-------------------|-----2-0h1--|-------------------|
E|--0-3-------|-------------------|--0-3-------|-------------------|

Verso 1:

                  2x
G|-----------------|-----------------|----------------|-----------------|
D|-----------------|------2--0-20----|----------------|------2--0-20----|
A|------2-------2--|--0-3---------0--|------2-------2-|--0-3---------0--|
E|--0-3----0-32----|-----------------|--0-3----0-32---|-----------------|

                                     "4...3...2...1..."
G|----------------|-----------------|-----------------|
D|----------------|-----------------|-----------------|
A|--3-2-0--3-2-0--|------2-------2--|--2-0----0-20----|
E|----------------|--0-3----0-32----|------2-------2--|


Refrão:

"Earth below us..."
G|-------------------------------------------------------|
D|-------------------------------------------------------|
A|--2--2--2--2--2--2--2--2--|--032--2--2--2--2--2--2--2--|
E|-------------------------------------------------------|


Ponte:
              6x                                2x
G|-------------|-------------------|-------------|-------------------|
D|-------------|--2-3-2-3-2-3-2-3--|-------------|--2-3-2-3-2-3-2-3--|
A|------2-0h1--|-------------------|------2-0h1--|-------------------|
E|--0-3--------|-------------------|--0-3--------|-------------------|


(repete Verso 1)


Refrão 2:

G|--------------------------|-----------------------------|      |--|
D|--------------------------|-----------------------------|      |--|
A|--2--2--2--2--2--2--2--2--|--032--2--2--2--2--2--2--2-03|  2x  |2~|
E|--------------------------|-----------------------------|      |--|

Verso 2:
                  2x
G|-----------------|-----------------|-----------------|------------------|
D|-----------------|------2--0-20----|-----------------|-------2--0-20----|
A|------2-------2--|--0-3---------2--|------2-------2--|---0-3---------0--|
E|--0-3----0-32----|-----------------|--0-3----0-32----|------------------|

G|----------------|------------------|-----------------|
D|----------------|------------------|-----------------|
A|--3-2-0--3-2-0--|-------2-------2--|--2-0----0-20----|
E|----------------|--0--3----0-32----|------2-------2--|

(Refrão 2x)
Página 1 / 1

Letras e título
Acordes e artista

resetar configurações
OK