Cifra Club

Fell

School Of Fish

Cifra: Principal (violão e guitarra)
tom: D
Date: Mon, 18 Sep 1995 18:43:18 -0700
From: * (John S. Jacob)

------
By Josh Clayton-Felt and Michael Ward
Transcribed by John S. Jacob 


There are at least two guitars in this song. I have decided to TAB
the song as having only one guitar, however, since that's the way
I play it. If you'd like both guitars, maybe I can find some time,
but I'm not really that eager since the TAB would be so similar.


Chords:
A       x 0 2 2 2 0
A[V]    5 7 7 6 5 5
B       x 2 4 4 4 x
Bsus    x 2 4 4 5 x
C#m     x 4 6 6 5 4
E       0 2 2 1 0 0
E[VII]  0 7 9 9 0 0


I don't normally indicate meter into my TABs, but this time I have.
I've tried to align my TAB to these beats:

  |  1           2            |  3           4            |


[Fill 1]
     E
e-|--0---0-0-0-0-0---0-0-0-0--|--0---0-0-0-0-0---0-0-0-0--|
B-|--0---0-0-0-0-0---0-0-0-0--|--0---0-0-0-0-0---0-0-0-0--|
G-|--9---9-9-9-9-8---8-8-8-8--|--7---7-7-7-7-6---6-6-6-6--|
D-|--9---9-9-9-9-9---9-9-9-9--|--9---9-9-9-9-9---9-9-9-9--|
A-|--7---7-7-7-7-7---7-7-7-7--|--7---7-7-7-7-7---7-7-7-7--|
E-|--0---0-0-0-0-0---0-0-0-0--|--0---0-0-0-0-0---0-0-0-0--|


[Riff 1]
     E          E/D#            E/C#        E/B
e-|--4---4-4-4-4-4---4-4-4-4--|--4---4-4-4-4-4---4-4-4-4--|
B-|--5---5-5-5-5-5---5-5-5-5--|--5---5-5-5-5-5---5-5-5-5--|
G-|--4---4-4-4-4-4---4-4-4-4--|--4---4-4-4-4-4---4-4-4-4--|
D-|--6---6-6-6-6-6---6-6-6-6--|--6---6-6-6-6-6---6-6-6-6--|
A-|--7---7-7-7-7-6---6-6-6-6--|--4---4-4-4-4--------------|
E-|---------------------------|--------------7---7-7-7-7--|

     E          E/D#            E/C#        Bm7
e-|--4---4-4-4-4-4---4-4-4-4--|--4---4-4-4-4-2---2-2-2-2--|
B-|--5---5-5-5-5-5---5-5-5-5--|--5---5-5-5-5-3---3-3-3-3--|
G-|--4---4-4-4-4-4---4-4-4-4--|--4---4-4-4-4-2---2-2-2-2--|
D-|--6---6-6-6-6-6---6-6-6-6--|--6---6-6-6-6-4---4-4-4-4--|
A-|--7---7-7-7-7-6---6-6-6-6--|--4---4-4-4-4-2---2-2-2-2--|
E-|---------------------------|---------------------------|

   (Bm7)
e-|--4---5---4---2---2-2-2-2--|--2---2-2-2-2--|
B-|--3---3---3---3---3-3-3-3--|--3---3-3-3-3--|
G-|--2---2---2---2---2-2-2-2--|--2---2-2-2-2--|
D-|-(4)-(4)-(4)--4---4-4-4-4--|--4---4-4-4-4--|
A-|-(2)-(2)-(2)--2---2-2-2-2--|--2---2-2-2-2--|
E-|---------------------------|---------------|


{Intro}
[Fill 1]x3
E[VII]


[Riff 1]
Well the girl in the front row is leaving
Leaving because it's twelve-fifteen
[Riff 1]
And I wish she would stay the whole evening
Wish she would stay and see what I mean

[Riff 1]
And I can't find the girl in the room now
Was there something that I did not understand
[Riff 1]
And I can't tell the roof from the floor now
I wish she was here to give me a hand


{Chorus}
      C#m            A[V]
But I fell in love tomorrow
       E                 Bsus
Well I fell in love with her
       C#m            E
Well I fell in love tomorrow
    A                   Bsus  B     [Fill 1]x2
But she's got the final word,   so I've heard


[Riff 1]
Well the girl in the front row is gone now
And the room that is full doesn't feel like it should
[Riff 1]
And I guess I just waited too long somehow
I guess I just waited but I knew I would


{Chorus}
But I fell in love tomorrow
Yeah I fell in love with her
Well I fell in love tomorrow
     A               Bsus  B
But she's the final word,   so I've


{Bridge/Solo}
    Bm7
e-|-/5-5-5-4-4-4-2-2-2-4-4-4--|--5-5-5-4-4-4-2-2-2-4-x-x--|
B-|--3-3-3-3-3-3-3-3-3-3-3-3--|--3-3-3-3-3-3-3-3-3-3-x-x--|
G-|--2-2-2-2-2-2-2-2-2-2-2-2--|--2-2-2-2-2-2-2-2-2-2-x-x--|
D-|--4------------------------|--4------------------------|
A-|--2------------------------|--2------------------------|
E-|---------------------------|---------------------------|
     heard

    Bm7
e-|-/5-5-5-4-4-4-2-2-2-4-4-4--|--5-5-5-4-4-4-2-2-2-4-x-x--|
B-|--3-3-3-3-3-3-3-3-3-3-3-3--|--3-3-3-3-3-3-3-3-3-3-x-x--|
G-|--2-2-2-2-2-2-2-2-2-2-2-2--|--2-2-2-2-2-2-2-2-2-2-x-x--|
D-|--4------------------------|--4------------------------|
A-|--2------------------------|--2------------------------|
E-|---------------------------|---------------------------|

    Bm7
e-|-/5-5-5-4-4-4-2-2-2-4-4-4--|--5-5-5-4-4-4-2-2-2-4-x-x--|
B-|--3-3-3-3-3-3-3-3-3-3-3-3--|--3-3-3-3-3-3-3-3-3-3-x-x--|
G-|--2-2-2-2-2-2-2-2-2-2-2-2--|--2-2-2-2-2-2-2-2-2-2-x-x--|
D-|--4------------------------|--4------------------------|
A-|--2------------------------|--2------------------------|
E-|---------------------------|---------------------------|

[Fill 1]
When you fall from the painting
[Fill 1]
Down to the cold hard floor
[Fill 1]                                       E[VII]
Well the world that was perfect isn't there anymore

{Tacit}


{Outro}

[Fill 1]


   [Fill 1] +
e-|---------------------------|---------------------------|
B-|---------------------------|----------------9h10p9-12--|
G-|---------------------------|---------------------------|
D-|---------------------------|---------------------------|
A-|---------------------------|---------------------------|
E-|---------------------------|---------------------------|

   [Fill 1] +
e-|---------------------------|---------------------------|
B-|-(12)-----------9h10p9--7--|-(7)---------/7---5---4----|
G-|---------------------------|---------------------------|
D-|---------------------------|---------------------------|
A-|---------------------------|---------------------------|
E-|---------------------------|---------------------------|

   E[VII]
e-|---------------------------|---------------------------|
B-|--5------------------------|-(5)-----------------------|
G-|---------------------------|---------------------------|
D-|---------------------------|---------------------------|
A-|---------------------------|---------------------------|
E-|---------------------------|---------------------------|


--
  [========== John S. Jacob ==========]
  |    *    |
  | * |-----------------------------+
  |     *     |         1 + 1 = 3           |
  +-----------------------------------+ for all large values of 1  -- |
                                    +-------------------------------- |
00:00 / 00:00
Outros vídeos desta música
Repetir
Outros vídeos desta música
Composição de Josh Clayton-Felt / Michael Ward
174 exibições
    • ½ Tom
    • A
    • Bb
    • B
    • C
    • Db
    • D
    • Eb
    • E
    • F
    • F#
    • G
    • Ab
  • Adicionar à lista

    0 comentários

    Ver todos os comentários

    Conseguiu tocar?

    0 Tocaram 0 Ainda não

    Grave um vídeo tocando Fell e nos envie!

    00:00 / 00:00

    Cifra Club Pro

    Aproveite o Cifra Club com benefícios exclusivos e sem anúncios
    Cifra Club Pro
    Aproveite o Cifra Club com benefícios exclusivos e sem anúncios
    OK