Always Somewhere Live

Scorpions

Tom: C
Tabbed by: Subodh Pun

This is the live unplugged version of the song performed by the band itself 
in USA in 1998. I am not going to tabulate the Intro of the song cuz it's 
quite similar to the Intro of the plugged one and I am not going to write 
the lyric of the song as well. I am just gonna write the tablature of the 
solos.

Acoustic guitar is used.

Solo 1

E-------------------------|------------------------------------|
B-------------------------|------------------------------------|
G------------------------2|-4-4/5-4-2-0------------------------|
D--------0-2-3/5-3\2-0-2--|--------------2---------0-2-0-------|
A--0-2-3------------------|------------------0-2-3-------3-2-0-|
E-------------------------|------------------------------------|


E---5-7-8-7\5-------------|---------------------------------|
B-------------------------|---------------------------------|
G-------------------------|---------------------------------|
D-------------------------|---------------------------------|
A-------------------------|---------------------------------|
E-------------------------|---------------------------------|

End of Solo 1

Solo 2

E------8-7-8-------7-5-7--|---5-7-7/8-7-5-3-----------------|
B---5---------5-3---------|-5---------------5---------------|
G-------------------------|---------------------------------|
D-------------------------|---------------------------------|
A-------------------------|---------------------------------|
E-------------------------|---------------------------------|


E---------------------15-13-12-10-|-----10----8----7--------|
B---------------------------------|-------------------------|
G---12(hold and bent)-------------|-7br-----7----7-----7--8b|
D---------------------------------|-------------------------|
A---------------------------------|-------------------------|
E---------------------------------|-------------------------|


E------------------------------|---------------------------|
B----10-12-13-10h12p10-8-------|----------5-6/8-6-5--------|
G------------------------9-7-5-|----5-5-7------------7-----|
D------------------------------|7-5------------------------|
A------------------------------|---------------------------|
E------------------------------|---------------------------|


E----------------------7br--|--8-10-8-7----------------------|
B---------------------------|-----------10-8-------------8br-|
G----2-4-4/5-4-2-0----------|-----------------------7--------|
D--2---------------2--------|-----------------10-10---10-----|
A---------------------------|--------------------------------|
E---------------------------|--------------------------------|


E-----------10-12-15-12-----|
B--10-12-13-----------------|
G---------------------------|
D---------------------------|
A---------------------------|
E---------------------------|

End of Solo 2

Note:
/-slide down
\-slide up
b-bend
r-release
h-hammer

Any Comment or want to share your opinion with me regarding this tab, pls 
contact me.

Página 1 / 1

Letras e título
Acordes e artista

resetar configurações
variar acorde