Under The Same Sun

Scorpions

Composição de: Bruce Fairbairn / Klaus Meine / Rudolf Schenker
tom: Db (forma dos acordes no tom de D ) Afinação: Eb Ab Db Gb Bb Eb
         Bm     C            D
B|------------------------------------------|                   
B|------------------------------------------|                       
B|------------------------------------------|                       
B|------0--------0----------0---------------|                       
B|----2---2----3---3-----5-----5---7b-r-5---|                       
B|-2---------3--------5---------------------|                       
                                                                    
                                                                    
              Bm     C            D                                    
B|--------------------------------------------|                     
B|--------------------------------------------|                    
B|--------------------------------------------|                     
B|------0--------0----------0-----4h5-4-2--0--|                     
B|----2---2----3---3-----5-----5--------------|  (no final entra    
B|-2---------3--------5-----------------------|   o riff2 junto)    
                                                                

          Bm  C       D     Bm   C      D
B|------------------|--------------------|
B|--------8-7-----7-|--10---8-7----------|
B|--7--9--------9---|-----------9--7~----| riff 2 (Rudolf)
B|------------------|--------------------|
B|------------------|--------------------|
B|------------------|--------------------|

Intro 4x: Bm  C  D

Bm          C       (riff 1)
I saw the morning
         D
it was shattered by a gun
           Bm              C            D
heard the scream, saw him fall no one cried
Bm         C    (riff 1 + riff 2)
I saw a mother
           D
she was praying for her son
           Bm             C                 D
bring him back, let him live don't let him die

Em          A
do you ever asked yourself
             F#m              Bm
is there a heaven in the sky....
     Em                A       A|---7-7--7h9--7| (Rudolf)
why can't we get it right?

          D                       F#m
'cause we all live under the same sun
   D                        F#m
we all walk under the same moon (yeah!)
     Bm    A#7+             D            A
then why? why? , can't we live as one?

--------2 parte (Mathias faz o riff 1 com pequnas variações
                 e rudolf faz uma base abafada)

Bm         C
I saw the evening
          D
fading shadows one by one
                Bm           C         D
we watched the lamb lay down to the sacrifice
Bm           C
I saw the children
      D
the children of the sun
          Bm             C            D
how they wept, how they bled how they died

Em          A
do you ever asked yourself
             F#m              Bm
is there a heaven in the sky....
     Em                A       A|---7-7--7h9--7| (Rudolf)
why can't we stop the fight?

          D                       F#m
'cause we all live under the same sun
   D                        F#m
we all walk under the same moon (yeah!)
      Bm   A#7+              D          D7
then why? why? , can't we live as one

Ponte:
   Bm                       G
Sometimes I think I'm going mad
( day after day, day after day)
                      A#
we are losing all we had
( day after day, day after day)
      C            D            C#
and no one seem to care, yeah!
( day after day, day after day)
    Bm                      G
But in my heart it doesn't change
( day after day, day after day)
                 A#
we've got to rearrange
( day after day, day after day)
       C                  D                 C#
and bring our world some love, yeah!, yeah!
( day after day, day after day)

  Solo 2x: Bm  A  G#  G
E|------------------------------------------|                   
B|-----7-8-8h10-7~---10-8-7-7h8p7-----------|                       
G|-7-9----------------------------9--9/11-9-|                       
D|------------------------------------------|                       
A|------------------------------------------|                       
E|------------------------------------------| 

E|--------------------------7/9------7h9-7h9-7----7----|                   
B|-----------7-7-8-7-8-10-8-----10-7-----------10---7--|                       
G|-7-8-7-8-9--9----------------------------------------|                       
D|----9------------------------------------------------|                       
A|-----------------------------------------------------|                       
E|-----------------------------------------------------|      

E|--7-9-10--9-10--10-9-7----12/14-12--10-9-10-10/12--|                   
B|-7-------------------------------------------------|                     
G|---------------------------------------------------|                       

E|-17/19-17h19-17-15-14-14h15-------------------------------------|                       
B|----------------------------15--------14-15---------------------|                       
G|------------------------------16----16-----16-14h16p14---14h16--| 
D|----------------------------------16-----------------------16---|

Em              A
And does it really matter?
             F#m        Bm
if there's a heaven up above
      Em                  A
we should could use some love

          D                   F#m
'cause we all live under the same sky
   D                   F#m
we all look up at the same stars (yeah!)
      Bm   A#7+               D                   A
then why? why? , can't we live as one? (hey!)

          D                  F#m
'cause we all live under the same sun
   D                   F#m
we all walk under the same moon (yeah!)
   D                   F#m
we all live under the same sky
   D                   F#m
we all look up at the same stars (yeah!)
     Bm            A#7+               D
then why? tell me why? , can't we live as one?
Página 1 / 1

Letras e título
Acordes e artista

resetar configurações
OK