When You Came Into My Life

Scorpions

Composição de: James F. Sundah / Klaus Meine / Rudolf Schenker / Titiek Puspa
tom: C
(intro)
     Am                                    C9
E |-------------------------------------|-------------------3-----------------|
B |--------0------1--------0------------|--------1-3---1------1--3---1--------|
G |------2---2-------2---------2--------|---------------0----------0----------|
D |----2------2-------2------2----------|-----2-------------------------------|
A |--0----------------------------------|---3---------------------------------|
E |-------------------------------------|-------------------------------------|

     G                                     F
E |-------------------------------------|-------------------------------------|
B |-------0----0--1--0------------------|-----------1-------------------------|
G |---------2-----------2--0------------|----------2--------------------------|
D |-----0-------------------------------|---------3---------------------------|
A |-------------------------------------|--------3----------------------------|
E |---3---------------------------------|-------------------------------------|

                 Am                     C
You give me your smile, a piece of your heart
                G              F
you give me the feel I've been looking for
              Am                  C
you give me your soul, your innocent love
            G             F
you are the one I've been waiting for
          Dm           E
I've been waiting for

                Am                C
We're lost in a kiss, a moment in time
        G            F
forever young, just forever
       Dm       E
just forever in love

                   F                  Dm           F
When you came into my life it took my breath away
                                           E
because your love has found it's way to my heart

Am    A9     Am    A9
uh... ah..., uh... ah...

            Am                        C
You make me dream by the look in your eyes
                  G              F
you give me the feel I've been longing for
                    Am           C
I wanna give you my soul, all my life
                    G             F
because you are the one I've been waiting for
          Dm             E
I've been waiting for so long

(refrão)
                   F                  Dm          F
When you came into my life it took my breath away
                                              E
and the world stopped turning around for your love
                      F               Dm          F
when you came into my life it took my breath away
                                           E
because your love has found it's way to my heart
        Am
into my heart

(solo 2x) Am C G F

     Dm         E
Just forever in love

(refrão 2x)
Página 1 / 1

Letras e título
Acordes e artista

resetar configurações
OK