Cifra Club

Wind of Change

Scorpions

Cifra: Principal
exibições 1.020.271
Tom: C
Intro: F  Dm  F  Dm  Am7  Dm  Am7  G5

     Dm         Am7         G5
E|---1----------0---------------------------|
B|------3----------1---------3--0-----------|
G|---------2----------0-------------0-------|
D|-0----------------------------------------|
A|------------0-----------------------------|
E|------------------------3-----------------|


Primeira Parte:

C                   Dm
  I follow the Moskva
               C
Down to Gorky Park
                  Dm       Am7  G5
Listening to the wind of chan______ge
C                   Dm
  An August summer night
                  C
Soldiers passing by
                  Dm       Am7  G5
Listening to the wind of chan______ge


Repete Intro

F  Dm  F  Dm  Am7  Dm  Am7  G5


Variação da Primeira Parte:

C                      Dm
  The world is closing in
               C
Did you ever think
                      Dm
That we could be so close
       Am7  G5
Like bro__thers
C                     Dm
  The future's in the air
                     C
I can feel it everywhere
                  Dm       Am7  G5
Blowing with the wind of chan______ge

     Dm         Am7         G5
E|---1----------0---------------------------|
B|------3----------1---------3--0-----------|
G|---------2----------0-------------0-------|
D|-0----------------------------------------|
A|------------0-----------------------------|
E|------------------------3-----------------|

    G5
E|-3--3-3-3-3-3-3---------------------------|
B|-3--3-3-3-3-3-3---------------------------|
G|-0--0-0-0-0-0-0---------------------------|
D|-0--0-0-0-0-0-0---------------------------|
A|------------------------------------------|
E|-3--3-3-3-3-3-3---------------------------|

Refrão

 C    G5         Dm           G5
Take me, to the magic of the moment
       C    G5
On a glory night
            Dm           G5
Where the children of tomorrow
        Am7
Dream away, (dream away)
F                  G5    C
  In the wind of change


Repete a Primeira Parte (Variação)

C                      Dm
  Walking down the street
             C
Distant memories
                   Dm      Am7  G5
Are buried in the past, fore___ver

C                   Dm
  I follow the Moskva
               C
Down to Gorky Park
                  Dm       Am7  G5
Listening to the wind of chan______ge


Repete o Refrão:

 C    G5         Dm           G5
Take me, to the magic of the moment
       C    G5
On a glory night
            Dm           G5
Where the children of tomorrow
        Am7
Dream away, (dream away)
F                  G5    C
  In the wind of change


Segunda Parte:

Am7                           G5
  The wind of change blows straight
                  Am7
Into the face of time
                             G5
Like a storm wind that will ring
                               C
The freedom bell for peace of mind
                    Dm
Let your balalaika sing
                         E7
What my guitar wants to say


Base do Solo:

F  G5  E7  Am7   F  G5  Am

F  G5  E7  Am7   Dm  E7


Solo:

E|--5-5--7-8-5h7p5-------------------------------------------------------|
B|------------------8-8b10r8-5-8-8b10r8--5-6-6b8r6p5---5-----------------|
G|---------------------------------------------------7----7b9r7p5-7~-----|
D|-----------------------------------------------------------------------|
A|-----------------------------------------------------------------------|
E|-----------------------------------------------------------------------|

E|-----------------------------12---------15b17r15-15-13-12h13p12---|
B|-------10-12b13rb12r13b12r13----13r12-----------------------------|
G|---7/9------------------------------------------------------------|
D|------------------------------------------------------------------|
A|------------------------------------------------------------------|
E|------------------------------------------------------------------|

E|---------------------------------------------------------------------21b23---|
B|--------------------------------------------15b17-15--19b21r19-17-19---------|
G|----------------------------------------10-----------------------------------|
D|------------10-9/--10-12-12/14-12/14-12--------------------------------------|
A|--10/12-12-------------------------------------------------------------------|
E|-----------------------------------------------------------------------------|


Repete o Refrão:

 C    G5         Dm           G5
Take me, to the magic of the moment
       C    G5
On a glory night
            Dm           G5
Where the children of tomorrow
        Am7
Dream away, (dream away)
F                  G5    C
  In the wind of change


Repete Intro:

F  Dm  F  Dm  Am  Dm

0 comentários

    mostrar mais comentários

    Conseguiu tocar?

    197tocaram0ainda não

    Grave um vídeo tocando Wind of Change e mande pra gente!

    00:00 / 00:00
    outros vídeos desta música
    repetirqualidadeautomática
    Outro vídeos desta música
      00:00 / 00:00
      automática
      Capítulos
      • Tocando a música
      • Dicas iniciais / Equipamentos
      • Acordes da Introdução e Primeira Parte
      • Tocando Introdução e Primeira Parte
      • Ensinando Introdução e Primeira Parte
      • Ensinando Passagem
      • Dicas da Repetição
      • Tocando Repetição Primeira Parte
      • Ensinando ritmo repetição
      • Ensinando Passagem (Variação)
      • Dicas do Refrão
      • Tocando Refrão
      • Ensinando Refrão
      • Dicas e acorde da Segunda Parte
      • Tocando Segunda Parte
      • Dicas da base (Solo)
      • Tocando Solo (Base)
      • Ensinando Solo (Base)
      • Encerramento
      • Ficha técnica / Erros de Gravação
      OK