Cifra Club

Wind of Change

Scorpions

Cifra: Versão 3 (violão e guitarra)
tom: C
[Intro:] F, Dm, F, Dm, Am, Dm Am, G, C

C                Dm
 I folow the Moskva
               C
 Down to Gorky Park
                  Dm      Am  G  C
 Listening to the wind of change
                 Dm
 An August summer night
                  C
 Soldiers passing by
                  Dm      Am  G
 Listening to the wind of change

[Interlude]  F, Dm, F, Dm, Am, Dm Am, G

C                      Dm
 The world is closing in
              C
 Did you ever think
                     Dm          Am G     C
 That we could be so close, like brothers
                    Dm
 The future's in the air
                    C
 I can feel it everywhere
                  Dm      Am   G
 Blowing with the wind of change 
 
[Chorus:]

   C     G         Dm           G
    Take me to the magic of the moment
         C     G
    On a glory night
              Dm            G             Am
    Where the children of tomorrow dream away
    F              G     C
    in the wind of change

                  Dm
 Walking down the street,
             C
 Distant memories
                   Dm         Am   G
 Are buried in the past, foreeeeeeever

C                Dm
 I folow the Moskva
               C
 Down to Gorky Park
                  Dm      Am  G
 Listening to the wind of change

   C     G         Dm           G
    Take me to the magic of the moment
         C     G
    On a glory night
              Dm            G                  Am
    Where the children of tomorrow share their dreams
    F            G
    With you and me
    
   C     G         Dm           G
    Take me to the magic of the moment
         C     G
    On a glory night
              Dm            G             Am
    Where the children of tomorrow dream away
    F              G
    in the wind of change

Am                                 
 The wind of change
       G                         Am
 Blows straight into the face of time
                            G
 Like a stormwind that will ring
                               C
 The freedom bell For peace of mind
                    Dm
 Let your balalaika sing
                         E     
 What my guitar wants to say 
 
[SOLO:]  F, G, E, Am 
         F, G, Am
         F, G, E, Am,
         Dm, D9, E    

e|---------------------------------------------------------------------------------------------------
B|--------------------------------------------11b----------------------------------------------------
G|-------12--14-14br-----12--14-14brbr-----------12-14-15-14-12 -14-15b--15-17-19-19b----------------
D|---14-----------------14----------------------12/14------------------------------------------------
E|---------------------------------------------------------------------------------------------------

e|---------------------------------------------------------------------15-17-15b--15-13-12h13p12-
B|----------------------------------------------17-18-20brbrbrbr-------------------------------------
G|--15-17-17b-------------15-17-19-19b---------------------------------------------------------------
D|---------------15h17p19----------------------------------------------------------------------------
A|---------------------------------------------------------------------------------------------------
E|---------------------------------------------------------------------------------------------------

e|--------------------------------------------------------------------12-13-12-15-22br---------------
B|-----------------------------------------------------------15br------------------------------------
G|----------------------------------------------10---------------------------------------------------
D|--7--7-10-9--9--10-12--14--12-14--12----14-12------------------------------------------------------
A|---------------------------------------------------------------------------------------------------
E|---------------------------------------------------------------------------------------------------
   C     G         Dm           G
    Take me to the magic of the moment
         C     G
    On a glory night
              Dm            G                  Am
    Where the children of tomorrow share their dreams
    F            G
    With you and me
    
   C     G         Dm           G
    Take me to the magic of the moment
         C     G
    On a glory night
              Dm            G             Am
    Where the children of tomorrow dream away
    F              G
    in the wind of change.
    
[Outro:] F, Dm, F, Dm, Am, Dm
F            Dm           Am7   
00:00 / 00:00
Outros vídeos desta música
Repetir
Outros vídeos desta música
Composição de Klaus Meine / Peter Frampton
48.530 exibições
    • ½ Tom
    • A
    • Bb
    • B
    • C
    • Db
    • D
    • Eb
    • E
    • F
    • F#
    • G
    • Ab
  • Adicionar à lista

    0 comentários

    Ver todos os comentários

    Conseguiu tocar?

    4 Tocaram 1 Ainda não

    Grave um vídeo tocando Wind of Change e nos envie!

    Entre para oCifra Club PRO

    Tenha acesso a benefícios exclusivos no App e no Site

    • Chega de anúncios

    • Prioridade de compra em lançamentos

    • Mais recursos no app do Afinador

    • Atendimento Prioritário

    • Descontos nos produtos Cifra Club

    • Ajude a produzir mais conteúdo

    00:00 / 00:00
    Capítulos
    • Tocando a música
    • Dicas Inicias
    • Equipamentos / Configurações
    • Solo (52 bpm)
    • Solo (65 bpm)
    • Encerramento
    • Ficha Técnica

    Cifra Club Pro

    Aproveite o Cifra Club com benefícios exclusivos e sem anúncios
    Cifra Club Pro
    Aproveite o Cifra Club com benefícios exclusivos e sem anúncios
    OK