Amy Saw Me Looking At Her Boobs

Screeching Weasel

Composição de: Screeching Weasel
tom: F
Tabbed By Matt Shepard


Intro :
| --------------------------- |
| --------------------------- |
| ----2h-3--2-----2h-3---2--- |
| --3-----------3------------ |
| --------------------------- |
| --------------------------- |

Riff 1 :
| -------------- |
| -------------- |
| --5----------- |
| --5--5--7--5-- |
| --3--5--7--5-- |
| -----3--5--3-- |

Riff 2 :
| -------------------------- |
| -------------------------- |
| --7-----7-----7-----5----- |
| --7--5--7--5--7--5--5--5-- |
| --5--5--5--5--5--5--3--5-- |
| -----3-----3-----3-----3-- |
Página 1 / 1

Letras e título
Acordes e artista

resetar configurações
OK