I Wanna Be Your Boyfriend

Screeching Weasel

Composição de: Ramones
tom: A
Ramones Cover - I wanna be your boyfriend
Tabbed by Raul Agrait (*)

Intro/Verses:

hey little girl....
-----------------------------|
-----------------------------|
---9-9-9-9-9-9---------------|
---9-9-9-9-9-9--7-7--9-9-9---|
---7-7-7-7-7-7--7-7--9-9-9---|
----------------5 5--7-7-7---|

Chorus:

do you love me babe?...
------------------------------|
------------------------------|
------------------------------|
---6-6-6-6-6-6----------------|
---6-6-6-6-6-6--7-7-7-7-7-7---|
---4-4-4-4-4-4--7-7-7-7-7-7---|
----------------5-5-5-5-5-5---|
pm . . . . . .  . . . . . .
Página 1 / 1

Letras e título
Acordes e artista

resetar configurações
OK