Cifra Club

Kiss From a Rose

Seal

Cifra: Principal
exibições 233.239
Tom: B
(intro 4x) E  F#  G#

G#                          E     F#           G#
There used to be a graying tower alone on the sea
G#               E          F#           G#
You became the light on the dark side of me
G#              F#            C#                G#
Love remains a drug that's the high and not the pill
         G#                 G#m      E         F#
Did you know that when it snows my eyes become large
        E            F#             G#
And the light that you shine can't be seen

(refrão)
  G#                      E        F#           G#
Baby, I compare you to a kiss from a rose on the gray
     G#                     E        F#      G#
The more I get of you the stranger it feels, yeah
G#             E        F#      E          F#           G#
Now that your rose is in bloom, a light hits the gloom on the gray

(solo)
E|-4-6-|-7---9-7--|-6h7p6-------|----------|--------4-6-|-7---9-7-|-6h7p6---------|------|
B|-----|----------|------ 9-7h9-|-9----9p7-|-7/9--------|---------|-------7--9/11-|-9----|
G|-----|----------|-------------|----------|------------|---------|---------------|------|
D|-----|----------|-------------|----------|------------|---------|---------------|------|
A|-----|----------|-------------|----------|------------|---------|---------------|------|
E|-----|----------|-------------|----------|------------|---------|---------------|------|

 G#                         E           F#           G#
There is so much a man can tell you, so much he can say
G#     G#       E          F#          G#
You remain my power, my pleasure, my pain, baby
   E                          F#                     G#
To me you're like a growin' addiction that I can't deny
G#                          E         F#
Won't you tell me is that healthy, babe?
             G#                 G#m      E         F#
But did you know that when it snows my eyes become large
        E            F#             G#      G#
And the light that you shine can't be seen

  G#                      E        F#           G#
Baby, I compare you to a kiss from a rose on the gray
     G#                     E        F#      G#
The more I get of you the stranger it feels, yeah
G#             E        F#      E          F#           G#
Now that your rose is in bloom, a light hits the gloom on the gray

(solo 2)

E|-4-6-|-7---9-7--|-6h7p6-------|----------|--------4-6-|-7---9-7-|-6h7p6---------|---------|
B|-----|----------|-------9-7h9-|-9----9p7-|-7/9--------|---------|-------7--9/11-|-9---9p7-|
G|-----|----------|-------------|----------|------------|---------|---------------|---------|
D|-----|----------|-------------|----------|------------|---------|---------------|---------|
A|-----|----------|-------------|----------|------------|---------|---------------|---------|
E|-----|----------|-------------|----------|------------|---------|---------------|---------|

E|-----4-6-|-7---9-7--|-6h7p6------6-|-7---9-7--|-6h7p6-----|
B|-7/9-----|----------|-------7------|----------|-------9-7-|
G|---------|----------|--------------|----------|-----------|
D|---------|----------|--------------|----------|-----------|
A|---------|----------|--------------|----------|-----------|
E|---------|----------|--------------|----------|-----------|

 F#        C#           B           F#
I've been kissed by a rose on the gray,
 F#        C#           B
I've been kissed by a rose
 F#        C#           B           F#
I've been kissed by a rose on the gray
 F#        C#           B           G#
I've been kissed by a rose on the gray
 G#                        E            F#           G#
There is so much a man can tell you, so much he can say
G#            E         F#           G#
You remain my power, my pleasure, my pain,
   E                         F#                     G#
To me you're like a growin' addiction that I can't deny
G#m                  E         F#
Won't you tell me is that healthy, babe?

             G#                 G#m      E        F#
But did you know that when it snows my eyes become large
        E            F#             G#
And the light that you shine can't be seen

(refrão) (2x)
  G#                      E        F#           G#
Baby, I compare you to a kiss from a rose on the gray
     G#                     E        F#      G#
The more I get of you the stranger it feels, yeah
G#             E        F#      E          F#           G#
Now that your rose is in bloom, a light hits the gloom on the gray

(solo)
E|-4-6-|-7---9-7--|-6h7p6-------|----------|--------4-6-|-7---9-7-|-6h7p6---------|------|
B|-----|----------|------ 9-7h9-|-9----9p7-|-7/9--------|---------|-------7--9/11-|-9----|
G|-----|----------|-------------|----------|------------|---------|---------------|------|
D|-----|----------|-------------|----------|------------|---------|---------------|------|
A|-----|----------|-------------|----------|------------|---------|---------------|------|
E|-----|----------|-------------|----------|------------|---------|---------------|------|

Now that your rose is in bloom, a light hits the gloom on the gray
Acordes para:

    0 comentários

      mostrar mais comentários

      Conseguiu tocar?

      15tocaram0ainda não

      Grave um vídeo tocando Kiss From a Rose e mande pra gente!

      00:00 / 00:00
      outros vídeos desta música
      repetirqualidadeautomática
      Outro vídeos desta música
        00:00 / 00:00
        automática
        OK