Cifra Club

Aprenda

Flores Astrais

Secos & Molhados

Tab de baixo: Principal
Verso:
   D               A              C           G     D               
G|-----7-----7-|----6-9---6-9-|-5--5--5-4-------|-----7-----7-|
D|----7----7---|-7------7-----|-----------7-5-5-|----7----7---|
A|-5-----5-----|--------------|-----------------|-5-----5-----|
E|-------------|--------------|-----------------|-------------|

Refrão:
   A              D G D G D    A            D C G D               
G|--------------|----------4-|-6----------|---------------|
D|-----7------7-|-----4-5-7--|----7---7---|---------------|
A|----7------7--|-5-7--------|------7-----|-5-3-2-0-------|
E|-5------5-----|------------|----------5-|---------3-2-0-|

Esse é o esquema básico da música, não está exatamente igual.
Composição de João Apolinario / João Ricardo
Colaboração e revisão:
  • Kiyoto
1.685 exibições

0 comentários

Mostrar mais comentários

Conseguiu tocar?

0 Tocaram 0 Ainda não

Grave um vídeo tocando Flores Astrais e mande pra gente!

00:00 / 00:00
outros vídeos desta música
repetir qualidade Automático
Outros vídeos desta música
00:00 / 00:00
Automático
OK