Cifra Club

Aprenda

Primavera nos Dentes

Secos & Molhados

Tab de baixo: Principal
Primavera nos Dentes
                                                                                  
(Inicia o baixo no 11º compasso da música.) 
    Em7                                     A          
G||------9------9---7-------------9---7---|-------------------------------| (22X)
D||------------------------9---7----------|7------7------7-----7----------|
A||---------------------------------------|------------------------0--5--7|
E||0--------------------------------------|-------------------------------|
           

(Ao iniciar o vocal)  
    Em7                                     A                                F                              G
G||------9------9---7-------------9---7---|-------------------------------|------------------------------|---------- 
D||------------------------9---7----------|7------7------7-----7----------|------------------------------|----------
A||---------------------------------------|------------------------0--5--7|--8--8--8--8--8--8--8--8--8--8|--10--10--
E||0--------------------------------------|-------------------------------|------------------------------|----------
                                                              
------------------------------| (2X)
------------------------------|
10--10--10--10--10--10--10--10|
------------------------------|


Final:
    Em7                                     A
G||------9------9---7-------------9---7---|-------------------------------| (5X e fade out com variações.)
D||------------------------9---7----------|7------7------7-----7----------|
A||---------------------------------------|------------------------0--5--7|
E||0--------------------------------------|-------------------------------|
Composição de João Apolinario / João Ricardo
Colaboração e revisão:
  • Eduardo Garrido
257 exibições

0 comentários

Mostrar mais comentários

Conseguiu tocar?

0 Tocaram 0 Ainda não

Grave um vídeo tocando Primavera nos Dentes e mande pra gente!

00:00 / 00:00
outros vídeos desta música
repetir qualidade Automático
Outros vídeos desta música
00:00 / 00:00
Automático
OK