Cifra Club

Fotos Y Recuerdos Solo

Selena

Cifra: Principal (violão e guitarra)
tom: D
E:|-------------------------------------------------------|
B:|-------------------10----10--10--10~-10\8/10--8\7-8-7--|
G:|-------------7-----------------------------------------|
D:|-------7-h9-----9--------------------------------------|
A:|---7-9-------------------------------------------------|
E:|-------------------------------------------------------|

E:|-------------------------------------------------------|
B:|-9--7b8-9p7-9b10-7\6--7~-------------------------------|
G:|-------------------------------------------------------|
D:|-------------------------------------------------------|
A:|-------------------------------------------------------|
E:|-------------------------------------------------------|

E:|-------------------------------------------------------|
B:|---------8--10-8--10~---10-10-10--8-8-8---7-7-7--------|
G:|------7------------------------------------------------|
D:|----7--------------------------------------------------|
A:|-------------------------------------------------------|
E:|-------------------------------------------------------|

E:|-------------------------------------------------------|
B:|---9p7-9b10-10r9--7\6--7~------------------------------|
G:|-------------------------------------------------------|
D:|-------------------------------------------------------|
A:|-------------------------------------------------------|
E:|-------------------------------------------------------|

Compositor não encontrado.
1.448 exibições
    • ½ Tom
    • A
    • Bb
    • B
    • C
    • Db
    • D
    • Eb
    • E
    • F
    • F#
    • G
    • Ab
  • Adicionar à lista

    0 comentários

    Ver todos os comentários

    Conseguiu tocar?

    0 Tocaram 0 Ainda não

    Grave um vídeo tocando Fotos Y Recuerdos Solo e nos envie!

    00:00 / 00:00
    Outros vídeos desta música
    Repetir Qualidade Automático
    Outros vídeos desta música
    00:00 / 00:00
    Automático

    Cifra Club Pro

    Aproveite o Cifra Club com benefícios exclusivos e sem anúncios
    Cifra Club Pro
    Aproveite o Cifra Club com benefícios exclusivos e sem anúncios
    OK