Tequila Moonlight

Self Against City

Composição de: Jack Matranga / Jonathan Michael Temkin / Self Against City
tom: G
hey, im a noob and this is my first time attempting a tab. yeah, i know it sucks, but i 
ive only been playing guitar for a couple of months, so im not very experienced. anyway, 
the tab:

Intro/Verse
e|----------------------------|
B|--5-------5-----------------|
G|----5-----------------------| x4
D|------5-5-------------------|
A|----------------------------|
E|----------------------------|

e|----------------------------|
B|--3-------3-----------------|
G|----0-0-0-------------------| x4
D|----------------------------|
A|----------------------------|
E|----------------------------|

repeat this until the solo


Solo.. or whatever this part is
e|--------------------------------------------|
B|--3-5---3---3-5---3---3-5---1---3-5---1-3---|
G|------0---------0---------0---------0-------|
D|--------------------------------------------|
A|--------------------------------------------|
E|--------------------------------------------|

i cant figure out the rest, sorry D:
Página 1 / 1

Letras e título
Acordes e artista

resetar configurações
OK