Cifra Club

Jesus Me Chamou

Senivalda Meneses

Cifra: Principal (violão e guitarra)
exibições 5.985
Tom: C
Intro: C F G

E|--8--7----------|--8--7------------------|--8--7------------|--8--7------------|
B|--------8-------|--------8---------------|--------8---------|--------8---------|
G|-----------9----|-----------9------------|-----------9------|-----------9------|
D|----------------|------------------------|------------------|------------------|
A|----------------|------------------------|------------------|------------------|
E|----------------|------------------------|------------------|------------------|

E|------8------8--|-7--8--10--7--8--10---|
B|--10-----10-----|----------------------|
G|----------------|----------------------|
D|----------------|----------------------|
A|----------------|----------------------|
E|----------------|----------------------|

           C                      F                           C              G        F          G        C
Sempre me lembro o que passei no mundo de ilusão,  não tinha paz, não tinha luz, não conhecia  o meu jesus.
     C                        F                            C                     G        F     G       C
foi quando nas madrugadas em sonho Jesus mim mostrava a sua igreja subindo pra glória e eu ficava de fora
     C                      F                        C                    G           F      G      C  G
acordava desesperada sem saber o que fazer , quando via que era apenas um sonho, dormindo ainda ficava.

Refrão:
           C                                    F                             C                Am
Jesus mim chamou eu não atendi, Jesus mim chamou eu não atendi, Jesus mim chamou eu não atendir, jesus mim
    G                       C                            F                     C             Am        G
chamou, quem não vem por amor vem pela dor mais é pela dor que estou aqui exaltando o santo nome do senhor.

          C                           F                                       C                    G
um certo dia viajando me encontrava, pensando que estava tudo bem, em um instante apareceram dois homens
         F                 G       C                                      F
houve um assalto e mim fizeram refém, dormindo ainda mim encontrava não entendia o que estava acontecendo de
     C                   G         F         G         C  G
uma coisa eu tinha certeza naquele instante estava morrendo.

Refrão:
         C                     F                      C              G            F   G     C
naquela hora o senhor chegou estendendo as suas mãos trazendo tranquilidade para o meu coração. foi quando
             F                            C               G        F        G    C    G
acordava e o trabalhar do Senhor entendi chorando desesperada aos pés do senhor eu cair.
Acordes para:
    Colaboração e revisão:
    • José Gomes
    • ALEXSANDRO ARAUJO

    0 comentários

    mostrar mais comentários

    Conseguiu tocar?

    1tocaram0ainda não

    Grave um vídeo tocando Jesus Me Chamou e mande pra gente!

    00:00 / 00:00
    outros vídeos desta música
    repetirqualidadeAutomático
    Outro vídeos desta música
      00:00 / 00:00
      OK