Cifra Club

Antichrist

Sepultura

Cifra: Principal
exibições 3.366
Tom: F
Eh isso galera treine um pouco de Exercicio Aranha para aperfeiçoar melor o ritmo.

1||------------------|-----------------|------------------|-----------------||
2||------------------|-----------------|------------------|-----------------||
3||------------------|-----------------|------------------|-----------------||
4||------------------|-----------------|------------------|---------3--3--3-||
5||------------------|---------3--3--3-|------------------|---------1--1--1-||
6||-0000000000000000-|-000000001--1--1-|-0000000000000000-|-00000000--------||

   Slower                                Chorus
1||------------------|-----------------||-----------------||
2||------------------|-----------------||-----------------||
3||------------------|-----------------||-----------------||
4||------------------|---------8--8--8-||-----------------||
5||-5555556655555566-|-555555556--6--6-||---------5--7--8-||
6||------------------|-----------------||-000000003--5--6-||

   Slower
1||-----------------|-----------------|------------------|-----------------||
2||-----------------|-----------------|------------------|-----------------||
3||-----------------|-----------------|------------------|-----------------||
4||-----------------|-----------------|------------------|-----------------||
5||-2---2-2-2-2-2-2-|-2-2-2-2-3-------|-/8---8-8-8-8-8-8-|-7---7-7-8---7---||
6||-0---0-0-0-0-0-0-|-0-0-0-0-1-------|-/6---6-6-6-6-6-6-|-5---5-5-6---5---||

   Outro
1||------------------|-----------------||-----------------|------------------|
2||------------------|-----------------||-----------------|------------------|
3||------------------|-----------------||-----------------|------------------|
4||------------------|-----------------||-5-----6-5-----6-|-5----------------|
5||-3333333333333333-|-333333333333334-||-3-----4-3-----4-|-3-------33333333-|
6||------------------|-----------------||-----------------|------------------|

1||-----------------|-----------------||-----------------|------------------|
2||-----------------|-----------------||-----------------|------------------|
3||-----------------|-----------------||-----------------|------------------|
4||-5-----6-5-----6-|-5-------5--5--5-||-7-----8-7-----8-|-7----------------|
5||-3-----4-3-----4-|-3-------3--3--3-||-5-----6-5-----6-|-5-------55555555-|
6||-----------------|-----------------||-----------------|------------------|

                                        Ending
1||-----------------|-----------------||-------------||
2||-----------------|-----------------||-------------||
3||-----------------|-----------------||-------------||
4||-7-----8-7-----8-|-7-------7--7--7-||-------------||
5||-5-----6-5-----6-|-5-------5--5--5-||---5--7--8-2-||
6||-----------------|-----------------||---3--5--6-0-||
Acordes para:
    Composição: SepulturaColaboração e revisão:
    • Israel Iscarioths.

    0 comentários

      mostrar mais comentários

      Conseguiu tocar?

      1tocaram0ainda não

      Grave um vídeo tocando Antichrist e mande pra gente!

      00:00 / 00:00
      outros vídeos desta música
      repetirqualidadeautomática
      Outro vídeos desta música
        00:00 / 00:00
        automática
        OK