Cifra Club

Bodies

Sepultura

Cifra: Principal
exibições 371
Tom: A
Intro (126bpm)
Guitar 1
|------------0-----------------------0------------------------0-----------------------------|
|------------------0---------------------------0------------------------0-------------------|
|----3b------------------3b-----------------------------3b-------------------3b-------------|
|-------------------------------------------------------------------------------------------|
|-------------------------------------------------------------------------------------------|
|-------------------------------------------------------------------------------------------|

Guitar 2
|-------------------------------------------------------------------------------------------|
|-------------------------------------------------------------------------------------------|
|-------------------------------------------------------------------------------------------|
|---------2---------0-----------2------------------2----------0-------------2---(2)---------|
|----------------------------------------------------------------------------------(2)------|
|--2/3--------3---------2/3--------0------2/3----------3---------2/3-----------0------------|

Verse (160bpm)
Guitar 1
|-------------------------------------------------------------------------------------------|
|-------------------------------------------------------------------------------------------|
|-------------------------------------------------------------------------------------------|
|---7-/-9--9--9----7-/-9--9--9----7-/-9--9--9----9--9--9------------------------------------|
|---7-/-9--9--9----7-/-9--9--9----7-/-9--9--9----9--9--9------------------------------------|
|---5-/-7--7--7----5-/-7--7--7----5-/-7--7--7----7--7--7------------------------------------|

|-------------------------------------------------------------------------------------------|
|-------------------------------------------------------------------------------------------|
|-------------------------------------------------------------------------------------------|
|---7-/-9--9--9----7-/-9--9--9----7-/-9--9--9----9--9--9------------------------------------|
|---7-/-9--9--9----7-/-9--9--9----7-/-9--9--9----9--9--9------------------------------------|
|---5-/-7--7--7----5-/-7--7--7----5-/-7--7--7----7--7--7------------------------------------|

|-------------------------------------------------------------------------------------------|
|-------------------------------------------------------------------------------------------|
|-------------------------------------------------------------------------------------------|
|---7-/-9--9--9----7-/-9--9--9----7-/-9--9--9----9--9--9------------------------------------|
|---7-/-9--9--9----7-/-9--9--9----7-/-9--9--9----9--9--9------------------------------------|
|---5-/-7--7--7----5-/-7--7--7----5-/-7--7--7----7--7--7------------------------------------|

|-------------------------------------------------------------------------------------------|
|-------------------------------------------------------------------------------------------|
|-------------------------------------------------------------------------------------------|
|---7-/-9--9--x-----------------------------------------------------------------------------|
|---7-/-9--9--x-----------x--x--------------------------------------------------------------|
|---5-/-7--7--x--/-18-\--x--x---------------------------------------------------------------|

Guitar 2
   |------------------PALM MUTED------------------------------------------------------------|
|-------------------------------------------------------------------------------------------|
|-------------------------------------------------------------------------------------------|
|-------------------------------------------------------------------------------------------|
|---7-/-9--9--9----7-/-9--9--9----7-/-9--9--9--9--9--9--9-----------------------------------|
|---7-/-9--9--9----7-/-9--9--9----7-/-9--9--9--9--9--9--9-----------------------------------|
|---5-/-7--7--7----5-/-7--7--7----5-/-7--7--7--7--7--7--7-----------------------------------|

   |------------------PALM MUTED------------------------------------------------------------|
|-------------------------------------------------------------------------------------------|
|-------------------------------------------------------------------------------------------|
|-------------------------------------------------------------------------------------------|
|---7-/-9--9--9----7-/-9--9--9----7-/-9--9--9--9--9--9--9-----------------------------------|
|---7-/-9--9--9----7-/-9--9--9----7-/-9--9--9--9--9--9--9-----------------------------------|
|---5-/-7--7--7----5-/-7--7--7----5-/-7--7--7--7--7--7--7-----------------------------------|

   |------------------PALM MUTED------------------------------------------------------------|
|-------------------------------------------------------------------------------------------|
|-------------------------------------------------------------------------------------------|
|-------------------------------------------------------------------------------------------|
|---7-/-9--9--9----7-/-9--9--9----7-/-9--9--9--9--9--9--9-----------------------------------|
|---7-/-9--9--9----7-/-9--9--9----7-/-9--9--9--9--9--9--9-----------------------------------|
|---5-/-7--7--7----5-/-7--7--7----5-/-7--7--7--7--7--7--7-----------------------------------|

   |------------------PALM MUTED------------------------------------------------------------|
|-------------------------------------------------------------------------------------------|
|-------------------------------------------------------------------------------------------|
|-------------------------------------------------------------------------------------------|
|---7-/-9--9--9----7-/-9--9--9----7-/-9--9--9--9--9--9--9-----------------------------------|
|---7-/-9--9--9----7-/-9--9--9----7-/-9--9--9--9--9--9--9-----------------------------------|
|---5-/-7--7--7----5-/-7--7--7----5-/-7--7--7--7--7--7--7-----------------------------------|

Guitars 1+2
|-------------------------------------------------------------------------------------------|
|-------------------------------------------------------------------------------------------|
|-------------------------------------------------------------------------------------------|
|---3-/-4--4--4----3-/-4--4--4----3-/-4--4--4----4--4--4------------------------------------|
|---3-/-4--4--4----3-/-4--4--4----3-/-4--4--4----4--4--4------------------------------------|
|---1-/-2--2--2----1-/-2--2--2----1-/-2--2--2----2--2--2------------------------------------|

|-------------------------------------------------------------------------------------------|
|-------------------------------------------------------------------------------------------|
|-------------------------------------------------------------------------------------------|
|---7-/-9--9--9----7-/-9--9--9----7-/-9--9--9----9--9--x------------------------------------|
|---7-/-9--9--9----7-/-9--9--9----7-/-9--9--9----9--9--x------------------------------------|
|---5-/-7--7--7----5-/-7--7--7----5-/-7--7--7----7--7--x------------------------------------|

|-------------------------------------------------------------------------------------------|
|-------------------------------------------------------------------------------------------|
|-------------------------------------------------------------------------------------------|
|---3-/-4--4--4----3-/-4--4--4----3-/-4--4--4----4--4--4------------------------------------|
|---3-/-4--4--4----3-/-4--4--4----3-/-4--4--4----4--4--4------------------------------------|
|---1-/-2--2--2----1-/-2--2--2----1-/-2--2--2----2--2--2------------------------------------|

|-------------------------------------------------------------------------------------------|
|-------------------------------------------------------------------------------------------|
|-------------------------------------------------------------------------------------------|
|---7-/-9--9--9----7-/-9--9--9----7-/-9--9--9----9--9--x------------------------------------|
|---7-/-9--9--9----7-/-9--9--9----7-/-9--9--9----9--9--x------------------------------------|
|---5-/-7--7--7----5-/-7--7--7----5-/-7--7--7----7--7--x------------------------------------|

Chorus
Guitar 1
|---3--3------5--5------------10-------------10-----------10-----------10-------------------|
|---3--3------5--5------------10-------------10-----------10-----------10-------------------|
|-----------------------11b----------11b----------11b------------11b------11--11------------|
|-------------------------------------------------------------------------------------12----|
|-------------------------------------------------------------------------------------------|
|-------------------------------------------------------------------------------------------|

|---3--3------5--5------------10-------------10---------------------------------------------|
|---3--3------5--5------------10-------------10---------------------------------------------|
|-----------------------11b----------11b-----------11\--------------------------------------|
|-------------------------------------------------------------------------------------------|
|-------------------------------------------------------------------------------------------|
|-------------------------------------------------------------------------------------------|

Guitar 2
|-------------------------------------------------------------------------------------------|
|-------------------------------------------------------------------------------------------|
|-------------------------------------------------------------------------------------------|
|---5--5--5--5----5--5--5--5----7--7--7--7----7--7--7--7------------------------------------|
|---5--5--5--5----5--5--5--5----7--7--7--7----7--7--7--7------------------------------------|
|---3--3--3--3----3--3--3--3----5--5--5--5----5--5--5--5------------------------------------|

|-------------------------------------------------------------------------------------------|
|-------------------------------------------------------------------------------------------|
|---6-/-7--7--7----6-/-7--7--7---6-/-7--7--7----7--7--7-------------------------------------|
|---6-/-7--7--7----6-/-7--7--7---6-/-7--7--7----7--7--7-------------------------------------|
|---4-/-5--5--5----4-/-5--5--5---4-/-5--5--5----5--5--5-------------------------------------|
|-------------------------------------------------------------------------------------------|

|-------------------------------------------------------------------------------------------|
|-------------------------------------------------------------------------------------------|
|-------------------------------------------------------------------------------------------|
|---5--5--5--5----5--5--5--5----7--7--7--7----7--7--7--7------------------------------------|
|---5--5--5--5----5--5--5--5----7--7--7--7----7--7--7--7------------------------------------|
|---3--3--3--3----3--3--3--3----5--5--5--5----5--5--5--5------------------------------------|

|-------------------------------------------------------------------------------------------|
|-------------------------------------------------------------------------------------------|
|---6-/-7--7--7----6-/-7--7--7--------------------------------------------------------------|
|---6-/-7--7--7----6-/-7--7--7-----7--7--7----7--7--7--7------------------------------------|
|---4-/-5--5--5----4-/-5--5--5-----7--7--7----7--7--7--7------------------------------------|
|--------------------------------------5--5--5----5--5--5--5--------------------------------|
Acordes para:
    Colaboração e revisão:
    • James Johny

    0 comentários

      mostrar mais comentários

      Conseguiu tocar?

      0tocaram0ainda não

      Grave um vídeo tocando Bodies e mande pra gente!

      00:00 / 00:00
      outros vídeos desta música
      repetirqualidadeautomática
      Outro vídeos desta música
        00:00 / 00:00
        automática
        OK