Cifra Club

Breed Apart

Sepultura

Tab de baixo: Principal
exibições 346
RIFF 1 (Intro)                                                                         RIFF 1:Termina com Dó Sustenido.

E ||-----------------------------------------------------------------------------------|        E ||----------|
B ||---------------------------------------------------------------------10-(10)-------|        B ||----------|
F#||---------------------------------------------------------------------10-(10)-------|        F#||----------|
C#||--0-0-0---0-0-0-0---0-0-0---0-0-0-0---0-0-0---0-0-0-0--0-0-0--/8(8)--8--(8)--------| (2X)   C#||-0(0)-----|

RIFF 2

E ||------------------------------|
B ||------------------------------|
F#||------------------------------|
C#||-0-0-0-0-0-0-0-0-0-0-0-0-0----|(8X)

RIFF 3

E ||---------------------------|
B ||---------------------------|
F#||---------------------------|
C#||---7p0-7p0-7p0-7p0-7h9-7---|(4x)

START TO DRUM PART

E ||-----------------------------------------|
B ||-----------------------------------------|
F#||-----------------------------------------|
C#||-0-0--0-0---0-0--0-0---0-0-0-0---0-0--0-0|

DRUM PART

E ||--------|
B ||--------|
F#||--------|
C#||-0--0-0-|(21X)

RIFF 4(OUTRO)

E ||--------------------------|
B ||--------------------------|
F#||--------------------------|
C#||-4(4)--8-7-5--8-7-5--4(4)-|
Composição: Andreas Kisser / Max CavaleraColaboração e revisão:
  • Jonny Bass

0 comentários

    mostrar mais comentários

    Conseguiu tocar?

    0tocaram0ainda não

    Grave um vídeo tocando Breed Apart e mande pra gente!

    00:00 / 00:00
    outros vídeos desta música
    repetirqualidadeautomática
    Outro vídeos desta música
      00:00 / 00:00
      automática
      OK