Cifra Club

Buried Words

Sepultura

Cifra: Principal
exibições 319
Tom: C
começa com um efeito muito doido no acorde F5.
agora, a verdadeira introdução:
d|------------------------|
A|------------------------|
F|------------------------|  <-intro(sem loud)
C|----------------------6-|  <-riff 1
G|----------------------6-|
D|1-1-1-2-1-1-1-2-1-1-1-4-|

faz quatro vezes até o derik começar a cantar.
enquanto ele canta, o riff fica assim:
d|------------------------|
A|------------------------|
F|------------------------| <-riff 2
C|------------------------| 
G|----------------------6-|
D|0/1-1-2-1-1-1-2-1-1-1-4-|

A sequência é assim:
G|------------------------------------------------------------|
D|1-1-1-1-1-1-1-1-1-2-1-1-1-1-1-1-1-1-1-2-1-0-0-0-0-0-0-0-0-0-| <-riff 3(tres vezes)

quando terminar volte a fazer o riff 2 e quando terminar faça novamente o riff 3.
antes da ponte:
C|3~|
G|3~|
D|1~|

ponte:(nao muito rapida)
G|2/3-3-4-3-4--6~|2/3-3-4-3-4--6~| 
D|0/1-1-2-1-2--4~|0/1-1-2-1-2--4~|<-RIFF 4

G|2/3-3-4-3-4--6~|2/3-3-4-3-4~~|<- RIFF 4
D|0/1-1-2-1-2--4~|0/1-1-2-1-2~~|

agora faça um pouco rapida:
G|2/3-3-4-3-4--6~|2/3-3-4-3-4--6~| 
D|0/1-1-2-1-2--4~|0/1-1-2-1-2--4~|<-RIFF 4

G|2/3-3-4-3-4--6~|2/3-3-4-3-4~~|<- RIFF 4
D|0/1-1-2-1-2--4~|0/1-1-2-1-2~~|

quando ele terminar de gritar, o solo começa:(junto com o riff 4)

d|12-9-8-9-8-9-8-9~|
A|-----------------|

agora faça o riff 3 e depois o riff 4 junto com isso aqui:

d|8-9-9-9-------|
A|--------------|
F|--------------|
C|--------11-~~-|

FINAL:
G|2~|
D|0~|


Acordes para:
    Composição: Andreas Kisser / Derrick GreenColaboração e revisão:
    • Francisco Lucas

    0 comentários

      mostrar mais comentários

      Conseguiu tocar?

      0tocaram0ainda não

      Grave um vídeo tocando Buried Words e mande pra gente!

      00:00 / 00:00
      outros vídeos desta música
      repetirqualidadeautomática
      Outro vídeos desta música
        00:00 / 00:00
        automática
        OK