Cifra Club

Convicted In Life

Sepultura

Tab de baixo: Principal
exibições 717
|----------|------------------------------|
|----------|------------------------------|
|----------|------------------------------|
|----------|------------------------------|
|----------|------------------------------|
|-0-0-0-0--|-5\4-0-4\3-0-3\2-0-2\1-0-2\1--|
  . . . .        .     .     .     .   *
|------------------------------------------------------|
|------------------------------------------------------|
|------------------------------------------------------|
|---------2-----------2--------------------------------|
|---------2-----------2---7\6---6\5---5\4---4\3---4\3--|
|-0-0-0-0-0---0-0-0-0-0---5\4-0-4\3-0-3\2-0-2\1-0-2\1--|
  . . . .     . . . .         .     .     .     .
|---------------------------------------------------|
|---------------------------------------------------|
|---------------------------------------------------|
|---------------------------------------------------|
|-10"--8"--7"-8"--5"--7"--10"--8"--11"-10"--8"-7"---|
|--8"--6"--5"-6"--3"--5"---8"--6"---9"--8"--6"-5"---|

|---------------------------------------------------|
|---------------------------------------------------|
|---------------------------------------------------|
|---------------------------------------------------|
|---------------------------------------------------|
|--8"--6"--5"-6"--3"--5"---8"--6"---9"--8"--6"-5"---|
   .   .   .  .   .   .    .   .    .   .   .  .
|-----------------------------|-----|
|-----------------------------|-----|
|-----------------------------|-----|
|-----5-----------------------|--2--|
|-4p3----4p3-4--3p1-3--1p0-1--|--2--|
|-----------------------------|--0--|

|-------------------|-------------------|---------------|
|-------------------|-------------------|---------------|
|-------------------|-------------------|---------------|
|-----8---8---7-----|-----8---8---7-----|---------------|
|-------------------|-5-----------------|-2-7-6--2-7-6--|
|-6666-666-666-666--|--666-666-666-666--|-0-5-4--0-5-4--|
  .... ... ... ...     ... ... ... ...
|-----------------------------------|-end-note-|
|-----------------------------------|----------|
|-----------------------------------|-0--------|
|-2---------------------------------|-2--------|
|-2----7\6---6\5---5\4---4\3---4\3--|-2--------|
|-0----5\4-0-4\3-0-3\2-0-2\1-0-2\1--|-0--------|
           .     .     .     .
Composição: Andreas Kisser / Derrick GreenColaboração e revisão:
  • James Johny

0 comentários

    mostrar mais comentários

    Conseguiu tocar?

    0tocaram0ainda não

    Grave um vídeo tocando Convicted In Life e mande pra gente!

    00:00 / 00:00
    outros vídeos desta música
    repetirqualidadeautomática
    Outro vídeos desta música
      00:00 / 00:00
      automática
      OK