Cifra Club

Orgasmatron

Sepultura

Tab de baixo: Principal
exibições 4.806

Paulo Jr.



                                     Q    E  E  Q    Q     
G||-------|-------|-------|-------|-----------------------|
D||-------|-------|-------|-------|-----------------------|
A||-------|-------|-------|-------|-----------------------|
E||-------|-------|-------|-------|--0----0--0--0----0----|


  Q    E  E  Q    Q       Q    E  E  Q    Q       Q    E  E  Q    Q     
-----------------------|-----------------------|-----------------------|
-----------------------|-----------------------|-----------------------|
-----------------------|-----------------------|-----------------------|
--0----0--0--0----0----|--0----0--0--0----0----|--0----0--0--0----0----|


  Q    E  E  Q    Q       Q    E  E  Q    Q       Q    E  E  Q    Q     
-----------------------|-----------------------|-----------------------|
-----------------------|-----------------------|-----------------------|
-----------------------|-----------------------|-----------------------|
--0----0--0--0----0----|--0----0--0--0----0----|--0----0--0--0----0----|


  Q    E  E  Q    Q       Q    E  E  Q    Q       Q    E  E  Q    Q     
-----------------------|-----------------------|-----------------------|
-----------------------|-----------------------|-----------------------|
-----------------------|-----------------------|-----------------------|
--0----0--0--0----0----|--0----0--0--0----0----|--0----0--0--0----0----|


  Q    E  E  Q    Q       Q    E  E  Q    Q       Q    E  E  Q    Q     
-----------------------|-----------------------|-----------------------|
-----------------------|-----------------------|-----------------------|
-----------------------|-----------------------|-----------------------|
--0----0--0--0----0----|--0----0--0--0----0----|--0----0--0--0----0----|


  Q    E  E  Q    Q       Q    E  E  Q    Q       Q    E  E  Q    Q     
-----------------------|-----------------------|-----------------------|
-----------------------|-----------------------|-----------------------|
-----------------------|-----------------------|-----------------------|
--0----0--0--0----0----|--0----0--0--0----0----|--0----0--0--0----0----|


  Q    E  E  Q    Q       Q    E  E  Q    Q       Q    E  E  Q    Q     
-----------------------|-----------------------|-----------------------|
-----------------------|-----------------------|-----------------------|
-----------------------|-----------------------|-----------------------|
--5----5--5--5----5----|--5----5--5--5----5----|--5----5--5--5----5----|


  Q    E  E  Q    Q       Q    E  E  Q    Q       Q    E  E  Q    Q     
-----------------------|-----------------------|-----------------------|
-----------------------|-----------------------|-----------------------|
-----------------------|-----------------------|-----------------------|
--5----5--5--5----5----|--0----0--0--0----0----|--0----0--0--0----0----|


  Q    E  E  Q    Q       Q    E  E  Q    Q       Q    E  E  Q    Q     
-----------------------|-----------------------|-----------------------|
-----------------------|-----------------------|-----------------------|
-----------------------|-----------------------|--4----4--4--4----4----|
--0----0--0--0----0----|--0----0--0--0----0----|-----------------------|


  Q    E  E  Q    Q       Q    E  E  Q    Q       Q    E  E  Q    Q     
-----------------------|-----------------------|-----------------------|
-----------------------|-----------------------|-----------------------|
--4----4--4--4----4----|-----------------------|-----------------------|
-----------------------|--2----2--2--2----2----|--2----2--2--2----2----|


  Q    E  E  Q    Q       Q    E  E  Q    Q       H        H         
-----------------------|-----------------------|--------------------|
-----------------------|-----------------------|--------------------|
-----------------------|-----------------------|--3--------5--------|
--0----0--0--0----0----|--0----0--0--0----0----|--------------------|


  Q    E  E  Q    Q       Q    E  E  Q    Q       Q    E  E  Q    Q     
-----------------------|-----------------------|-----------------------|
-----------------------|-----------------------|-----------------------|
-----------------------|-----------------------|-----------------------|
--0----0--0--0----0----|--0----0--0--0----0----|--0----0--0--0----0----|


  Q    E  E  Q    Q       Q    E  E  Q    Q       Q    E  E  Q    Q     
-----------------------|-----------------------|-----------------------|
-----------------------|-----------------------|-----------------------|
-----------------------|-----------------------|-----------------------|
--0----0--0--0----0----|--0----0--0--0----0----|--0----0--0--0----0----|


  Q    E  E  Q    Q       Q    E  E  Q    Q       Q    E  E  Q    Q     
-----------------------|-----------------------|-----------------------|
-----------------------|-----------------------|-----------------------|
-----------------------|-----------------------|-----------------------|
--0----0--0--0----0----|--0----0--0--0----0----|--0----0--0--0----0----|


  Q    E  E  Q    Q       Q    E  E  Q    Q       Q    E  E  Q    Q     
-----------------------|-----------------------|-----------------------|
-----------------------|-----------------------|-----------------------|
-----------------------|-----------------------|-----------------------|
--0----0--0--0----0----|--0----0--0--0----0----|--0----0--0--0----0----|


  Q    E  E  Q    Q       Q    E  E  Q    Q       Q    E  E  Q    Q     
-----------------------|-----------------------|-----------------------|
-----------------------|-----------------------|-----------------------|
-----------------------|-----------------------|-----------------------|
--0----0--0--0----0----|--0----0--0--0----0----|--0----0--0--0----0----|


  Q    E  E  Q    Q       Q    E  E  Q    Q       Q    E  E  Q    Q     
-----------------------|-----------------------|-----------------------|
-----------------------|-----------------------|-----------------------|
-----------------------|-----------------------|-----------------------|
--0----0--0--0----0----|--5----5--5--5----5----|--5----5--5--5----5----|


  Q    E  E  Q    Q       Q    E  E  Q    Q       Q    E  E  Q    Q     
-----------------------|-----------------------|-----------------------|
-----------------------|-----------------------|-----------------------|
-----------------------|-----------------------|-----------------------|
--5----5--5--5----5----|--5----5--5--5----5----|--0----0--0--0----0----|


  Q    E  E  Q    Q       Q    E  E  Q    Q       Q    E  E  Q    Q     
-----------------------|-----------------------|-----------------------|
-----------------------|-----------------------|-----------------------|
-----------------------|-----------------------|-----------------------|
--0----0--0--0----0----|--0----0--0--0----0----|--0----0--0--0----0----|


  Q    E  E  Q    Q       Q    E  E  Q    Q       Q    E  E  Q    Q     
-----------------------|-----------------------|-----------------------|
-----------------------|-----------------------|-----------------------|
--4----4--4--4----4----|--4----4--4--4----4----|-----------------------|
-----------------------|-----------------------|--2----2--2--2----2----|


  Q    E  E  Q    Q       Q    E  E  Q    Q       Q    E  E  Q    Q     
-----------------------|-----------------------|-----------------------|
-----------------------|-----------------------|-----------------------|
-----------------------|-----------------------|-----------------------|
--2----2--2--2----2----|--0----0--0--0----0----|--0----0--0--0----0----|


  H        H           Q    E  E  Q    Q       Q    E  E  Q    Q     
--------------------|-----------------------|-----------------------|
--------------------|-----------------------|-----------------------|
--3--------5--------|-----------------------|-----------------------|
--------------------|--0----0--0--0----0----|--0----0--0--0----0----|


  Q    E  E  Q    Q       Q    E  E  Q    Q       Q    E  E  Q    Q     
-----------------------|-----------------------|-----------------------|
-----------------------|-----------------------|-----------------------|
-----------------------|-----------------------|--4----4--4--4----4----|
--0----0--0--0----0----|--0----0--0--0----0----|-----------------------|


  Q    E  E  Q    Q       Q    E  E  Q    Q       Q    E  E  Q    Q     
-----------------------|-----------------------|-----------------------|
-----------------------|-----------------------|-----------------------|
--4----4--4--4----4----|--4----4--4--4----4----|--4----4--4--4----4----|
-----------------------|-----------------------|-----------------------|


  E  E  E  E  E  E  E  E     E  E  E  E  E  E  E  E   
--------------------------|--------------------------|
--------------------------|--------------------------|
--------------------------|--------------------------|
--0--0--0--0--0--0--0--0--|--0--0--0--0--0--0--0--0--|


  E  E  E  E  E  E  E  E     E  E  E  E  E  E  E  E     Q    E  E  Q    Q     
--------------------------|--------------------------|-----------------------|
--------------------------|--------------------------|-----------------------|
--------------------------|--------------------------|--4----4--4--4----4----|
--0--0--0--0--0--0--0--0--|--0--0--0--0--0--0--0--0--|-----------------------|


  Q    E  E  Q    Q       Q    E  E  Q    Q       Q    E  E  Q    Q     
-----------------------|-----------------------|-----------------------|
-----------------------|-----------------------|-----------------------|
--4----4--4--4----4----|-----------------------|-----------------------|
-----------------------|--2----2--2--2----2----|--2----2--2--2----2----|


  E  E  E  E  E  E  E  E     E  E  E  E  E  E  E  E   
--------------------------|--------------------------|
--------------------------|--------------------------|
--------------------------|--------------------------|
--0--0--0--0--0--0--0--0--|--0--0--0--0--0--0--0--0--|


  E  E  E  E  E  E  E  E     E  E  E  E  E  E  E  E     Q    E  E  Q    Q     
--------------------------|--------------------------|-----------------------|
--------------------------|--------------------------|-----------------------|
--------------------------|--------------------------|--4----4--4--4----4----|
--0--0--0--0--0--0--0--0--|--0--0--0--0--0--0--0--0--|-----------------------|


  Q    E  E  Q    Q       Q    E  E  Q    Q       Q    E  E  Q    Q     
-----------------------|-----------------------|-----------------------|
-----------------------|-----------------------|-----------------------|
--4----4--4--4----4----|--4----4--4--4----4----|--4----4--4--4----4----|
-----------------------|-----------------------|-----------------------|


  E  E  E  E  E  E  E  E     E  E  E  E  E  E  E  E     H        H         
--------------------------|--------------------------|--------------------|
--------------------------|--------------------------|--------------------|
--------------------------|--------------------------|--3--------5--------|
--0--0--0--0--0--0--0--0--|--0--0--0--0--0--0--0--0--|--------------------|


  Q    E  E  Q    Q       Q    E  E  Q    Q       Q    E  E  Q    Q     
-----------------------|-----------------------|-----------------------|
-----------------------|-----------------------|-----------------------|
-----------------------|-----------------------|-----------------------|
--0----0--0--0----0----|--0----0--0--0----0----|--0----0--0--0----0----|


  Q    E  E  Q    Q       Q    E  E  Q    Q       Q    E  E  Q    Q     
-----------------------|-----------------------|-----------------------|
-----------------------|-----------------------|-----------------------|
-----------------------|-----------------------|-----------------------|
--0----0--0--0----0----|--0----0--0--0----0----|--0----0--0--0----0----|


  Q    E  E  Q    Q       Q    E  E  Q    Q       Q    E  E  Q    Q     
-----------------------|-----------------------|-----------------------|
-----------------------|-----------------------|-----------------------|
-----------------------|-----------------------|-----------------------|
--0----0--0--0----0----|--0----0--0--0----0----|--0----0--0--0----0----|


  Q    E  E  Q    Q       Q    E  E  Q    Q       Q    E  E  Q    Q     
-----------------------|-----------------------|-----------------------|
-----------------------|-----------------------|-----------------------|
-----------------------|-----------------------|-----------------------|
--0----0--0--0----0----|--0----0--0--0----0----|--0----0--0--0----0----|


  Q    E  E  Q    Q       Q    E  E  Q    Q       Q    E  E  Q    Q     
-----------------------|-----------------------|-----------------------|
-----------------------|-----------------------|-----------------------|
-----------------------|-----------------------|-----------------------|
--5----5--5--5----5----|--5----5--5--5----5----|--5----5--5--5----5----|


  Q    E  E  Q    Q       Q    E  E  Q    Q       Q    E  E  Q    Q     
-----------------------|-----------------------|-----------------------|
-----------------------|-----------------------|-----------------------|
-----------------------|-----------------------|-----------------------|
--5----5--5--5----5----|--0----0--0--0----0----|--0----0--0--0----0----|


  Q    E  E  Q    Q       Q    E  E  Q    Q       Q    E  E  Q    Q     
-----------------------|-----------------------|-----------------------|
-----------------------|-----------------------|-----------------------|
-----------------------|-----------------------|--4----4--4--4----4----|
--0----0--0--0----0----|--0----0--0--0----0----|-----------------------|


  Q    E  E  Q    Q       Q    E  E  Q    Q       Q    E  E  Q    Q     
-----------------------|-----------------------|-----------------------|
-----------------------|-----------------------|-----------------------|
--4----4--4--4----4----|-----------------------|-----------------------|
-----------------------|--2----2--2--2----2----|--2----2--2--2----2----|


  Q    E  E  Q    Q       Q    E  E  Q    Q       H        H         
-----------------------|-----------------------|--------------------|
-----------------------|-----------------------|--------------------|
-----------------------|-----------------------|--3--------5--------|
--0----0--0--0----0----|--0----0--0--0----0----|--------------------|


  Q    E  E  Q    Q       Q    E  E  Q    Q       Q    E  E  Q    Q     
-----------------------|-----------------------|-----------------------|
-----------------------|-----------------------|-----------------------|
-----------------------|-----------------------|-----------------------|
--0----0--0--0----0----|--0----0--0--0----0----|--0----0--0--0----0----|


  Q    E  E  Q    Q       Q    E  E  Q    Q       Q    E  E  Q    Q     
-----------------------|-----------------------|-----------------------|
-----------------------|-----------------------|-----------------------|
-----------------------|-----------------------|-----------------------|
--0----0--0--0----0----|--0----0--0--0----0----|--0----0--0--0----0----|


  Q    E  E  Q    Q       Q    E  E  Q    Q       H        E  H        E   
-----------------------|-----------------------|--------------------------|
-----------------------|-----------------------|--------------------------|
-----------------------|-----------------------|--3--------L--5--------L--|
--0----0--0--0----0----|--0----0--0--0----0----|--------------------------|


  Q    Q    Q    Q       Q    Q    Q    Q       Q    Q    Q    Q     
----------------------|----------------------|----------------------|
----------------------|----------------------|----------------------|
----------------------|----------------------|----------------------|
--0----L----L----L----|--L----L----L----L----|--L----L----L----L----|


  Q    Q    Q    Q       Q    Q    Q    Q      
----------------------|----------------------||
----------------------|----------------------||
----------------------|----------------------||
--L----L----L----L----|--L----L----L----L----||

by Iorgu Mihai ROMANIA

0 comentários

    mostrar mais comentários

    Conseguiu tocar?

    3tocaram0ainda não

    Grave um vídeo tocando Orgasmatron e mande pra gente!

    00:00 / 00:00
    outros vídeos desta música
    repetirqualidadeautomática
    Outro vídeos desta música
      00:00 / 00:00
      automática
      OK