Polícia

Sepultura

Composição de: Toni Bellotto
tom: C
Guitarra afinada em Ré

Intro e base:
=== A C G === dica: use em powershort
OU:
r|-----------------------|
A|-----------------------|
F|-----------------------|
C|------7-7--------------|
G|-9-9--5-5--7--7-7--7-7-|
R|-7-7-------5--5-5--5-5-|

Refrão:
=== A G A C G ===
OU:
e|-------------------------------------------------|
B|-------------------------------------------------|
G|-------------------------------------------------|
D|--------------------------------5-5--------------|
A|-9--9-9--9-9--7--7-7--7-7--9-9--5-5--7--7-7--7-7-|
r|-7--7-7--7-7--5--5-5--5-5--7-7-------5--5-5--5-5-|
Página 1 / 1

Letras e título
Acordes e artista

resetar configurações
OK