Cifra Club

Roots Bloody Roots

Sepultura

Cifra: Principal (violão e guitarra)
exibições 76.357
Tom: C#m
(Afinação: B  F#  B  E  G#  C#)

[Introdução]

(Guitarra Base – Riff Principal)
(8x)
E|-----------------------------------------------------|
B|-----------------------------------------------------|
G|-----------------------------------------------------|
D|-----------------------------------------------------|
A|-----------------------------------------------------|
E|-0h1-------1---0h1-------1---0h1---------------------|

(Variação 1 do Riff Principal)
E|-----------------------------------------------------|
B|-----------------------------------------------------|
G|-----------------------------------------------------|
D|-----------------------------------------------------|
A|-----------------------------------------------------|
E|-0h1---1-1-1---0h1-------1---0h1---------------------|

(Variação 2 do Riff Principal)
E|-----------------------------------------------------|
B|-----------------------------------------------------|
G|-----------------------------------------------------|
D|-----------------------------------------------------|
A|-----------------------------------------------------|
E|-0h1---1---1---0h1---1---1---0h1---------------------|

(Guitarra Solo)
(4x)
E|--------10------10------10------10---10--------------|
B|-14--14------14------14------14----------------------|
G|-----------------------------------------------------|
D|-----------------------------------------------------|
A|-----------------------------------------------------|
E|-----------------------------------------------------|

[Refrão]
(8x)
E|-----------------------------------------------------|
B|-----------------------------------------------------|
G|-----------------------------------------------------|
D|-0h1---1---1---0h1-------1---0h2---------------------|
A|-0h1---1---1---0h1-------1---0h2---------------------|
E|-0h1---1---1---0h1-------1---0h2---------------------|

Roots, bloody roots
Roots, bloody roots
Roots, bloody roots
Roots, bloody roots


[Primeira Estrofe]

I believe in our fate
We don't need to fake
It's all we wanna be
Watch me freak

[Passagem]
(4x)
E|-----------------------------------------------------|
B|-----------------------------------------------------|
G|-----------------------------------------------------|
D|-6---5---3--2--3-------------------------------------|
A|-6---5---3--2--3-------------------------------------|
E|-6---5---3--2--3-------------------------------------|


[Segunda Estrofe]

I say we're growing every day
Getting stronger in every way
I'll take you to a place
Where we shall find our


[Refrão]

Roots, bloody roots
Roots, bloody roots
Roots, bloody roots
Roots, bloody roots


[Terceira Estrofe]

Rain, bring me the strength
To get to another day
And all I want to see
Set us free
Why can't you see?
Can't you feel?
This is real?


[Interlúdio]

(Guitarra Base)
  P.M .    .  .    .  .    .  .   . .
E|-----------------------------------------------------|
B|-----------------------------------------------------|
G|-----------------------------------------------------|
D|-----------------------------------------------------|
A|-0--0----0--0----0--0----0--0---0-0------------------|
E|-0--0----0--0----0--0----0--0---0-0------------------|

E|-----------------------------------------------------|
B|-----------------------------------------------------|
G|-----------------------------------------------------|
D|-----------------------------------------------------|
A|-----------------------------------------------------|
E|-0h1-------1---0h1-------1---0h1-------1---0h1-------|

(7x)
E|-----------------------------------------------------|
B|-----------------------------------------------------|
G|-----------------------------------------------------|
D|-----------------------------------------------------|
A|-----------------------------------------------------|
E|-0h1-------1---0h1-------1---0h1---------------------|

(Guitarra Solo)
(4x)
E|--------10------10------10------10---10--------------|
B|-14--14------14------14------14----------------------|
G|-----------------------------------------------------|
D|-----------------------------------------------------|
A|-----------------------------------------------------|
E|-----------------------------------------------------|


[Quarta Estrofe]

Pray, we don't need to change
Our ways to be saved
That all we wanna be
Watch us freak


[Passagem]
(4x)
E|-----------------------------------------------------|
B|-----------------------------------------------------|
G|-----------------------------------------------------|
D|-6---5---3--2--3-------------------------------------|
A|-6---5---3--2--3-------------------------------------|
E|-6---5---3--2--3-------------------------------------|


[Solo]

(Guitarra Base)
    P.M.   . .
(8x)
E|-----------------------------------------------------|
B|-----------------------------------------------------|
G|-----------------------------------------------------|
D|-----------------------------------------------------|
A|---0-0---0-0-----------------------------------------|
E|-1-0-0-1-0-0-1~--------------------------------------|

  P.M. . . . . . .
E|-----------------------------------------------------|
B|-----------------------------------------------------|
G|-----------------------------------------------------|
D|-2-2-2-2-2-2-2-2-------------------------------------|
A|-2-2-2-2-2-2-2-2-------------------------------------|
E|-2-2-2-2-2-2-2-2-------------------------------------|

(Guitarra Solo)
E|-10-----------10-------------------------------------|
B|-13b15~~------13b15~~--------------------------------|
G|-----------------------------------------------------|
D|-----------------------------------------------------|
A|-----------------------------------------------------|
E|-----------------------------------------------------|

E|-----------------------------------------------------|
B|-19...-15-19-15-19...----18...-15-18-15-18...--------|
G|-----------------------------------------------------|
D|-----------------------------------------------------|
A|-----------------------------------------------------|
E|-----------------------------------------------------|

                           ~~~        ~~~
E|-17~~----/----\--------------------------------------|
B|--------------------15h19------15h18-----------------|
G|-----------------------------------------------------|
D|-----------------------------------------------------|
A|-----------------------------------------------------|
E|-----------------------------------------------------|


[Ponte]
(4x)
E|-----------------------------------------------------|
B|-----------------------------------------------------|
G|-----------------------------------------------------|
D|-1p0---2p1---1p0---2p1---1--1------------------------|
A|-1p0---2p1---1p0---2p1---1--1------------------------|
E|-1p0---2p1---1p0---2p1---1--1------------------------|


[Final]
(8x)
E|-----------------------------------------------------|
B|-----------------------------------------------------|
G|-----------------------------------------------------|
D|-----------------------------------------------------|
A|-----------------------------------------------------|
E|-0h1---1---1---0h1---1---0---------------------------|

(7x)
E|-----------------------------------------------------|
B|-----------------------------------------------------|
G|-----------------------------------------------------|
D|-0h1---1---1---0h1---1---0---------------------------|
A|-0h1---1---1---0h1---1---0---------------------------|
E|-0h1---1---1---0h1---1---0---------------------------|

E|-----------------------------------------------------|
B|-----------------------------------------------------|
G|-----------------------------------------------------|
D|-0h1---1---1---0h1---1-------------------------------|
A|-0h1---1---1---0h1---1-------------------------------|
E|-0h1---1---1---0h1---1-------------------------------|
Acordes para:
    Composição: SepulturaColaboração e revisão:
    • Vinícius Dias
    • Arthur Gontijo
    • Diego Mota

    0 comentários

      mostrar mais comentários

      Conseguiu tocar?

      18tocaram2ainda não

      Grave um vídeo tocando Roots Bloody Roots e mande pra gente!

      00:00 / 00:00
      outros vídeos desta música
      repetirqualidadeAutomático
      Outro vídeos desta música
        00:00 / 00:00
        Capítulos
        • Tocando a música
        • Apresentação / Equipamentos
        • Afinação
        • Configurações de pedais
        • Tocando introdução
        • Riff Principal - Guitarra base
        • Riff Principal - Guitarra base (Variação 1)
        • Riff Principal - Guitarra base (Variação 2)
        • Solo da introdução
        • Dicas do refrão
        • Tocando refrão
        • Riff do refrão
        • Dicas das estrofes
        • Tocando estrofes 1 e 2
        • Estrofe 1 - Riff Principal
        • Passagem
        • Dicas refrão 2 - interlúdio
        • Tocando refrão 2 - interlúdio
        • Interlúdio - Solo
        • Interlúdio - Parte 1 de 2
        • Interlúdio - Parte 2 de 2
        • Dicas da música
        • Tocando quarta estrofe - solo
        • Base do solo - Parte 1 de 2
        • Base do solo - Parte 2 de 2
        • Solo - Parte 1 de 3
        • Solo - Parte 2 de 3
        • Solo - Parte 3 de 3
        • Tocando ponte
        • Ensinando ponte
        • Tocando final
        • Final - Parte 1 de 3
        • Final - Parte 2 de 3
        • Final - Parte 3 de 3
        • Encerramento
        OK