Cifra Club

Roots Bloody Roots

Sepultura

Cifra: Principal
exibições 72.464
Tom: E
Riff da introdução e dos versos:

C#|-------------------------------------------|
G#|-------------------------------------------|
E  |-------------------------------------------|
B|---------------------------------------------|
F#|---0h1-1-0h1-1-0h1---------------------|
B|---0h1-1-0h1-1-0h1-----------------------|
                                                             

Riff do Refrão


         Roots Bloody Roots ...

C#|----------------------------------------------|
G#|----------------------------------------------|
E  |----------------------------------------------|
B  |----------------------------------------------|
F#|--0h1-1-0h1-1--2--------------------------|
B  |--0h1-1-0h1-1--2--------------------------|


Riff 3 :


C#|----------------------------------------------------|
G#|----------------------------------------------------|
E  |----------------------------------------------------|
B  |----------------------------------------------------|
F#|--6-6-6--5-5-5--3-3-3--2--2--3-----------------|
B  |--6-6-6--5-5-5--3-3-3--2--2--3-----------------|


Após o Segundo refrão tem esse "Lead Break"
com a guitarra um intercalando as batidas :

C#|-----------------------------------------------------|
G#|-----------------------------------------------------|
E  |-----------------------------------------------------|
B  |-----------------------------------------------------|
F#|-1-1----1-1----1-1----1-1----1-1-0---------------|
B  |-1-1----1-1----1-1----1-1----1-1-0---------------|


Durante o solo a guitarra base faz o 
seguinte Riff:


C#|-----------------------------------------------------|
G#|-----------------------------------------------------|
E  |-----------------------------------------------------|
B  |-----------------------------------------------------|
F#|-0h1-1--0h1-1-------------------------------------|
B  |-0h1-1--0h1-1--1~~------------------------------|


Riff 6 (Pós Solo) : 


C#|----------------------------------------------------|
G#|----------------------------------------------------|
E  |-----------------------------------------------------|
B  |-----------------------------------------------------|
F#|--1-0--2-1--1-0--2-1--1-1------------------------|
B  |--1-0--2-1--1-0--2-1--1-1------------------------|

Riff Final:

 
C#|------------------------------------------------------|
G#|-----------------------------------------------------|
E  |-----------------------------------------------------|
B  |-----------------------------------------------------|
F#|----1--1--1--1--0----------------------------------|
B|----1--1--1--1--0-----------------------------------|



Riff Final (Variação) :

C#|----------------------------------------------------|
G#|----------------------------------------------------|
E  |----------------------------------------------------|
B  |----------------------------------------------------|
F#|----1--1--1--1--0---/-12--------------------------|
B  |----1--1--1--1--0---/-12--------------------------|
Acordes para:
    Composição: SepulturaColaboração e revisão:
    • Arthur Gontijo
    • Diego Mota

    0 comentários

      mostrar mais comentários

      Conseguiu tocar?

      18tocaram2ainda não

      Grave um vídeo tocando Roots Bloody Roots e mande pra gente!

      00:00 / 00:00
      outros vídeos desta música
      repetirqualidadeautomática
      Outro vídeos desta música
        00:00 / 00:00
        automática
        OK