Cifra Club

Roots Bloody Roots

Sepultura

Tab de baixo: Principal
exibições 16.299
[Introdução]


Parte 1 ( 8x )
G|----------------------------------------------|
D|----------------------------------------------|
A|----------------------------------------------|
E|----------------------------------------------|
B|-0h1-1-1-0h1-1-1--1---------------------------|


[Refrão]

Roots, bloody roots... 

Parte 1 ( 4x )
G|----------------------------------------------|
D|----------------------------------------------|
A|----------------------------------------------|
E|----------------------------------------------|
B|-0h1-1-1-1-1--0h1-1-1-1--1-1-1----------------|

G|----------------------------------------------|
D|----------------------------------------------|
A|----------------------------------------------|
E|----------------------------------------------|
B|-0h1-1-1-1-1--0h1-1-1-1--1-1-2----------------|


[Introdução 2]

Parte 1 ( 4x )
G|----------------------------------------------|
D|----------------------------------------------|
A|----------------------------------------------|
E|----------------------------------------------|
B|-0h1-1-1-0h1-1-1--1---------------------------|


[Primeira parte]

I believe in our fate...

Parte 1 de 3 ( 4x )
G|----------------------------------------------|
D|----------------------------------------------|
A|----------------------------------------------|
E|----------------------------------------------|
B|-0h1-1-1-0h1-1-1--1---------------------------|
 
Parte 2 de 3 ( 4x )
G|----------------------------------------------|
D|----------------------------------------------|
A|----------------------------------------------|
E|----------------------------------------------|
B|-6--5-5-5-5--3-3-3-3-2-2-3-3------------------|

Parte 3 de 3( 4x )
G|----------------------------------------------|
D|----------------------------------------------|
A|----------------------------------------------|
E|----------------------------------------------|
B|-0h1-1-1-0h1-1-1--1---------------------------|


[Refrão 2]

Roots, bloody roots... 

Parte 1 ( 4x )
G|----------------------------------------------|
D|----------------------------------------------|
A|----------------------------------------------|
E|----------------------------------------------|
B|-0h1-1-1-1-1--0h1-1-1-1--1-1-1----------------|

G|----------------------------------------------|
D|----------------------------------------------|
A|----------------------------------------------|
E|----------------------------------------------|
B|-0h1-1-1-1-1--0h1-1-1-1--1-1-2----------------|


[Segunda parte]

Rain, bring me the strength...

Parte 1 de 2 ( 8x )
G|----------------------------------------------|
D|----------------------------------------------|
A|----------------------------------------------|
E|----------------------------------------------|
B|-0h1-1-1-0h1-1-1--1---------------------------|
 
Parte 2 de 2
G|----------------------------------------------|
D|----------------------------------------------|
A|----------------------------------------------|
E|----------------------------------------------|
B|-0-0--0-0--0-0--0-0---12-12-12\2--------------|


[Introdução 3]

Parte 1 de 2
G|----------------------------------------------|
D|----------------------------------------------|
A|----------------------------------------------|
E|----------------------------------------------|
B|-1/12\----------------------------------------|

Parte 2 de 2 ( 4x )
G|----------------------------------------------|
D|----------------------------------------------|
A|----------------------------------------------|
E|----------------------------------------------|
B|-0h1-1-1-0h1-1-1--1---------------------------|


[Terceira parte]

I pray, we don't need to change...

Parte 1 de 2 ( 4x )
G|----------------------------------------------|
D|----------------------------------------------|
A|----------------------------------------------|
E|----------------------------------------------|
B|-0h1-1-1-0h1-1-1--1---------------------------|

Parte 2 de 2 ( 4x )
G|----------------------------------------------|
D|----------------------------------------------|
A|----------------------------------------------|
E|----------------------------------------------|
B|-6--5-5-5-5--3-3-3-3-2-2-3-3------------------|


[Quarta parte – solo guitar]

Parte 1 de 3 ( 8x )
G|----------------------------------------------|
D|----------------------------------------------|
A|----------------------------------------------|
E|----------------------------------------------|
B|-1-1-1-1--1-1-1-1--1-1-1-1--1-1-1-1-----------|

Parte 2 de 3
G|----------------------------------------------|
D|----------------------------------------------|
A|----------------------------------------------|
E|----------------------------------------------|
B|-2-2-2-2--2-2-2-2-----------------------------|

Parte 3 de 3 ( 4x )
G|----------------------------------------------|
D|----------------------------------------------|
A|----------------------------------------------|
E|----------------------------------------------|
B|-1-0--2-1--1-0--2-1--1-1----------------------|


[Introdução 4 -Final]

Parte 1 de 2
G|----------------------------------------------|
D|----------------------------------------------|
A|----------------------------------------------|
E|----------------------------------------------|
B|-12\1---12\1---12\1---------------------------|

Parte 2 de 2 ( 8x )
G|----------------------------------------------|
D|----------------------------------------------|
A|----------------------------------------------|
E|----------------------------------------------|
B|-1-1-1--1-1-0---------------------------------|
Composição: SepulturaColaboração e revisão:
  • Reginaldo Costa

0 comentários

    mostrar mais comentários

    Conseguiu tocar?

    1tocaram0ainda não

    Grave um vídeo tocando Roots Bloody Roots e mande pra gente!

    00:00 / 00:00
    outros vídeos desta música
    repetirqualidadeAutomático
    Outro vídeos desta música
      00:00 / 00:00
      Capítulos
      • Tocando a música
      • Apresentação / Equipamentos
      • TAB - Introdução
      • TAB - Refrão
      • TAB - Primeira parte - Parte 1 de 3
      • TAB - Primeira parte - Parte 2 de 3
      • TAB - Primeira parte - Parte 3 de 3
      • TAB - Segunda parte - Parte 1 de 2
      • TAB - Segunda parte - Parte 2 de 2
      • TAB - Introdução 3 - Parte 1 de 2
      • TAB - Introdução 3 - Parte 2 de 2
      • TAB - Quarta parte - Parte 1 de 3
      • TAB - Quarta parte - Parte 2 de 3
      • TAB - Quarta parte - Parte 3 de 3
      • TAB - Final - Parte 1 de 3
      • TAB - Final - Parte 2 de 3
      • TAB - Final - Parte 3 de 3
      • Encerramento
      OK