Cifra Club

Territory

Sepultura

Tab de baixo: Principal
exibições 14.002
A intro, começa com a bateria.
quando a guitarra entrar o 
baixo entrar também.


A:4-5--4-5--4-5--4-5--4-5--4-5--4-5--4-5|
E:--------------------------------------|

quando mudar faça isso


A:-----------------------------|
E:0-0-0-0-0-0-0-0--------------|

depois disso fica rápido mas, após
essa parte não esqueça da corda
solta E:111...0.


A:-------------------------------|
E:1-1-1-1-1-1-1-1-1-1-1-1-1-1-1-0|



    2x
A:-------------------------------|
E:1h2-1h2-0--1h2-1h2-4-----------|


quando ele começar a cantar ai você 
deve fazer isso

    Riff 1

A:-------------------------------|
E:5-2-0-0-5-2-0-0-5-2-0-0-5-2-0-0|


    2x  
A:-------------------------------|
E:1h2-1h2-0--1h2-1h2-4-----------|


A:-------------------------------|
E:1-1-1-1-1-1-1-1-1-1-1-1-1-1-1-1|



A:-------------------------------|
E:5-2-0-0-5-2-0-0-5-2-0-0-5-2-0-0|


    2x Rifff 2

A:--------------------|-----------|
E:1h2-1h2-0--1h2-1h2-4|-0---------|

depois q vc tocar a corda solta(E:- 0) vc
tem um tempo q é a parte da bateria
mas, depois vc tem q fazer isso:

    4x

A:4h54----4h5444------------------------|
E:-----00--------0000-------------------|


    4x

A:----------------------------------|
E:0-1-4/1h0-1--4/1h0-1--4/1h0-1--4h1|


    4x

A:4h54----4h5444------------------------|
E:-----00--------0000-------------------|

    2x  Riff 3

A:-------------------------------------------------|-4-5-6----------|
E:1-1-1-0-1-1-1-0-1-1-1-0-1-1-1-0-1-1-1-0-1-1-1-0-1|----------------|


A:----------------------------|
E:4h5-4h5-4h5-1--4h5-4h5-4h5-1|


A:---------------------------------------------------4-5-6---------|
E:1-1-1-0-1-1-1-0-1-1-1-0-1-1-1-0-1-1-1-0-1-1-1-0-1----------------|

na parte q ficar o solo da guitarra vc faz isso:


A:--------------------------------------------------------------|
E:4h55555-4h55555-4h55555-4h55555-4h55555-4h55555-4h55555-4h5555|



A:----------------------------------------------------------------------|
E:22-22-22-22--222--22-22-22-22--222--22-22-22-22--222--22-22-22-22--222|

quado acabar o solo é só fazer os seguintes riffs:
quantas vezex for preciso.

Riff 1
Riff 2 após esse riff tem um tempo...
Riff 3 após esse tempo vc faz o riff 3 e acaba.

A música é facil (procurei simplifica-la algumas vezes) mas, exige q vc treine o tempo. 
ouça e tente aconpanha-la... e é só isso!!!
Composição: SepulturaColaboração e revisão:
  • wellington costa

0 comentários

    mostrar mais comentários

    Conseguiu tocar?

    3tocaram0ainda não

    Grave um vídeo tocando Territory e mande pra gente!

    00:00 / 00:00
    outros vídeos desta música
    repetirqualidadeautomática
    Outro vídeos desta música
      00:00 / 00:00
      automática
      OK