Cifra Club

Troops of Doom

Sepultura

Cifra: Principal
exibições 21.220
Tom: C
e|------------------------------------------|
B|------------------------------------------|
G|------------------------------------------|
D|--9----10--12--8--9----9----10--12--8--9--|
A|--7----8---10--6--7----7----8---10--6--7--|
E|-----------------------7----8---10--6--7--|

e|---------------------------------------------------|
B|---------------------------------------------------|
G|---------------------------------------------------|
D|----------9-9--------10-10--------8-8---------9-9--|
A|----------7-7---------8-8---------6-6---------7-7--|
E|--0-0-0-0-----0-0-0-0-----0-0-0-0-----0-0-0-0------|

e|-----------------------------|
B|-----------------------------|
G|-----------------------------|
D|-----------------------------|
A|------------------------8-8--|
E|--0-0-0---0-0-0---0-0-0-6-6--|

e|--------------------------------------------------------------------|
B|--------------------------------------------------------------------|
G|--------------------------------------------------------------------|
D|--------------------------------------------------------------------|
A|--7-7-7-7-7-7-7-7------------------6-6-6-6-6-6-6-6------------------|
E|-------------------7-7-7-7-8-8-8-8-----------------7-7-7-7-8-8-8-8--|

e|----------------------------------------------|
B|----------------------------------------------|
G|----------------------------------------------|
D|-------------------------------------------3--|
A|----------------------------------------5--1--|
E|--0--0--0-0-0--0--0--0-0-0--0--0--0-0-0-3-----|

e|--------------------------------------------------------|
B|--------------------------------------------------------|
G|--------------------------------------------------------|
D|--9-----9----10-----8-------9-----9----10-----12--------|
A|--7-----7-----8-----6-------7-----7-----8-----10--------|
E|----0-0---0-0---0-0-----0-0---0-0---0-0---0-0------0-0--|

e|--------------------------------------|
B|--------------------------------------|
G|--------------------------------------|
D|--------------------------------------|
A|---------------------------------8-8--|
E|--0--0-0-0-0-0--0-0-0-0-0--0-0-0-6-6--|
Acordes para:

    0 comentários

      mostrar mais comentários

      Conseguiu tocar?

      12tocaram0ainda não

      Grave um vídeo tocando Troops of Doom e mande pra gente!

      00:00 / 00:00
      outros vídeos desta música
      repetirqualidadeautomática
      Outro vídeos desta música
        00:00 / 00:00
        automática
        OK