Cifra Club

Aprenda

Menino da Porteira

Sérgio Reis

Cifra: Ao-vivo (violão e guitarra)
Tom: G
[Intro]

E|----------------------------------------------|
B|-13-13-13-12--3-3-3h5--5/7--5-3-3-------3-----|
G|-14-14-14-12--4-4-4/5--5/7--5-4-2--4-4--2-4---|
D|-----------------------------------5-5----5---|
A|----------------------------------------------|
E|----------------------------------------------|

E|-8--8--8--7--10-10-10--12-14--12-10-8--7-7----|
B|-10-10-10-8--12-12-12--13-15--13-12-10-8-8----|
G|----------------------------------------------|
D|----------------------------------------------|
A|----------------------------------------------|
E|----------------------------------------------|

E|-8--7-------8--8--8--7------------------------|
B|-10-8-------10-10-10-8------------------------|
G|----------------------------------------------|
D|----------------------------------------------|
A|----------------------------------------------|
E|----------------------------------------------|

 G
Toda vez que eu viajava
                      D
Pela estrada de Ouro Fino

De longe eu avistava
                  G
A figura de um menino

Que corria abrir a porteira
                   D
Depois vinha me pedindo

Toque o berrante seu moço
          C     D     G
Que é pra eu ficar ouvindo

       C
Quando a boiada passava
                  D
E a poeira ia baixando

Eu jogava uma moeda
            G
Ele saia pulando

Obrigado boiadeiro
                        D
Que Deus vá lhe acompanhando

Pra aquele sertão afora
        C     D    G    
Meu berrante ia tocando

( D  G  D  G  D  G  D  G  D  G )

E|----------------------------------------------|
B|-13-13-13-12--3-3-3h5--5/7--5-3-3-------3-----|
G|-14-14-14-12--4-4-4/5--5/7--5-4-2--4-4--2-4---|
D|-----------------------------------5-5----5---|
A|----------------------------------------------|
E|----------------------------------------------|

E|-8--8--8--7--10-10-10--12-14--12-10-8--7-7----|
B|-10-10-10-8--12-12-12--13-15--13-12-10-8-8----|
G|----------------------------------------------|
D|----------------------------------------------|
A|----------------------------------------------|
E|----------------------------------------------|

E|-8--7-------8--8--8--7------------------------|
B|-10-8-------10-10-10-8------------------------|
G|----------------------------------------------|
D|----------------------------------------------|
A|----------------------------------------------|
E|----------------------------------------------|

      G
No caminho desta vida
                        D
Muito espinho eu encontrei

Mas nenhum caso mais fundo
                       G
Do que isso que eu passei

Na minha viagem de volta
                      D
Qualquer coisa eu cismei

Vendo a porteira fechada
     C    D        G
O menino não avistei
  C
Apeei do meu cavalo
                        D
Num ranchinho à beira chão

Vi uma mulher chorando
                     G
Quis saber qual a razão

Boiadeiro veio tarde
                     D
Veja a cruz no estradão

Quem matou o meu filhinho
        C   D       G  
Foi um boi sem coração

( D  G  D  G  D  G  D  G  D  G )

E|----------------------------------------------|
B|-13-13-13-12--3-3-3h5--5/7--5-3-3-------3-----|
G|-14-14-14-12--4-4-4/5--5/7--5-4-2--4-4--2-4---|
D|-----------------------------------5-5----5---|
A|----------------------------------------------|
E|----------------------------------------------|

E|-8--8--8--7--10-10-10--12-14--12-10-8--7-7----|
B|-10-10-10-8--12-12-12--13-15--13-12-10-8-8----|
G|----------------------------------------------|
D|----------------------------------------------|
A|----------------------------------------------|
E|----------------------------------------------|

E|-8--7-------8--8--8--7------------------------|
B|-10-8-------10-10-10-8------------------------|
G|----------------------------------------------|
D|----------------------------------------------|
A|----------------------------------------------|
E|----------------------------------------------|

 G
Lá pra banda de Ouro Fino
                 D
Levando gado selvagem

Quando passo na porteira
                 G
Até vejo a sua imagem

O seu rangido tão triste
                    D
Mais parece uma mensagem

Daquele rosto trigueiro
     C     D    G
Desejando-me boa viagem
    C
A cruzinha do estradão
                       D
Do meu pensamento não sai

Eu já fiz um juramento
                   G
Que não esqueço jamais

Nem que o meu gado estoure
                     D
Que eu precise ir atrás

Nesse pedaço de chão
     C           D     G
Berrante eu não toco mais

[Final] D  G  D  G  D  G  D  G  D  G 

E|----------------------------------------------|
B|-13-13-13-12--3-3-3h5--5/7--5-3-3-------3-----|
G|-14-14-14-12--4-4-4/5--5/7--5-4-2--4-4--2-4---|
D|-----------------------------------5-5----5---|
A|----------------------------------------------|
E|----------------------------------------------|

E|-8--8--8--7--10-10-10--12-14--12-10-8--7-7----|
B|-10-10-10-8--12-12-12--13-15--13-12-10-8-8----|
G|----------------------------------------------|
D|----------------------------------------------|
A|----------------------------------------------|
E|----------------------------------------------|

E|-8--7-------8--8--8--7------------------------|
B|-10-8-------10-10-10-8------------------------|
G|----------------------------------------------|
D|----------------------------------------------|
A|----------------------------------------------|
E|----------------------------------------------|
Composição de Luizinho / Teddy Vieira
315.661 exibições
    • ½ Tom
    • A
    • Bb
    • B
    • C
    • Db
    • D
    • Eb
    • E
    • F
    • F#
    • G
    • Ab
  • Adicionar à lista

    0 comentários

    Mostrar mais comentários
    00:00 / 00:00
    outros vídeos desta música
    repetir qualidade Automático
    Outros vídeos desta música
    00:00 / 00:00
    Automático
    Capítulos
    • Tocando a Música
    • Apresentação / Equipamentos
    • Acordes da Música
    • Ensinando o Ritmo da Música
    • Tocando Primeira Parte
    • Tocando Sequência Primeira Parte
    • Tocando Segunda Parte
    • Encerramento

    Cifra Club Pro

    Aproveite o Cifra Club com benefícios exclusivos e sem anúncios
    Cifra Club Pro
    Aproveite o Cifra Club com benefícios exclusivos e sem anúncios
    OK