Enviar cifraEntrar

Deja vu (feat. Prince Royce)

Shakira

Cifra: Principal
exibições 2.744
Tom: A
Intro: Bm  A

E|----------------------------------5-4-5-7---|
B|----------------------------------7-------5-|
G|-9/11/9-----6h7----9/11/9----4h6--6---------|
D|---------7----------------7-----------------| (2x)
A|--------------------------------------------|
E|--------------------------------------------|

Verso 1:

Bm                      E
   Tú me abriste las heridas
                   A
Que ya daba por curadas
                      F#m
Con limón, tequila y sal
Bm                   E
   Una historia repetida
                   A
Solamente un déjà vu
                      F#m
Que nunca llega a su final


Pré-Refrão:

   D            E
Mejor me quedo solo
        A                     F#m
Y me olvido de tus cosas, de tus ojos
   D              E
Mejor esquivo el polvo
        A                       F#m       D
No quiero caer de nuevo en esa foto de locura
           E
De hipocresía total


Refrão:

A                          F#m
 ¿Quién puede hablar del amor
        D
Y defenderlo?
       E
Que levante la mano, por favor
A                           F#m
 ¿Quién puede hablar del dolor?
           D
Pagar la fianza
         E
Pa' que salga de mi corazón
C#m                              D
    Si alguien va a hablar del amor
          E
Te lo aseguro
                    A G#m
Esa no voy a ser yo
F#m
No, esa no voy a ser yo

Solo: D E (Bm D) Bm
      Bm D E Bm E A

Solo violão:
E|-----------------------------------------|
B|-7-7-7-7-9-9h10p9p7-5--7-2-7-0-7---7-----|
G|---------------------------------2-------|
D|-----------------------------------------| 
A|-----------------------------------------|
E|-----------------------------------------|

Frase Violão - durante o solo da guitarra:
(Palhetada Swingada)
E|-----------------------------------------|
B|-------7-5-3-----------------------------| 
G|-7-x-x-----------------------------------|
D|-----------------------------------------| 
A|-----------------------------------------|
E|-----------------------------------------|

Solo Guitarra:
E|-7/--------------------------------------|
B|-----15p14----------10-------------------|
G|-----------11--9/11----11/9-7------------|
D|-----------------------------------------| 
A|-----------------------------------------|
E|-----------------------------------------|

                Final do solo (guitarra e violão)
E|-------------|----------------------------|
B|-10/12-10----|10/12-10--------------------|
G|-------------|---------9/11-9-------------|
D|-------------|----------------7p6h7-------| 
A|-------------|----------------------------|
E|-------------|----------------------------|

Verso 2:

Bm                 E
   Esta idea recurrente
                     A
Quiere jugar con mi mente
                      F#m
Pa' volverme a engatusar
Bm                   E
   Una historia repetida
                   A
Solamente un déjà vu
                        F#m
Que nunca llega a su final

Pré-Refrão:

   D            E
Mejor me quedo solo
        A                     F#m
Y me olvido de tus cosas, de tus ojos
   D              E
Mejor esquivo el polvo
        A                       F#m       D
No quiero caer de nuevo en esa foto de locura
           E
De hipocresía total


Refrão 2x:

A                          F#m
 ¿Quién puede hablar del amor
        D
Y defenderlo?
       E
Que levante la mano, por favor
A                           F#m
 ¿Quién puede hablar del dolor?
           D
Pagar la fianza
         E
Pa' que salga de mi corazón
C#m                              D
    Si alguien va a hablar del amor
          E
Te lo aseguro
                    A
Esa no voy a ser yo

Refrão:

A                          F#m
 ¿Quién puede hablar del amor
        D
Y defenderlo?
       E
Que levante la mano, por favor
A                           F#m
 ¿Quién puede hablar del dolor?
           D
Pagar la fianza
         E
Pa' que salga de mi corazón
C#m                              D
    Si alguien va a hablar del amor
          E
Te lo aseguro
                    A G#m
Esa no voy a ser yo
F#m                    (Fade out)
No, esa no voy a ser yo
  • 1
  • 2
  • 3
  • 4
  • 5
  • 6
  • 7
  • 8
  • 9
  • 10
  • 11
  • 12
    Acordes para:
      Colaboração e revisão:
      • Marcos Paulo

      0 comentários

        mostrar mais comentários

        Conseguiu tocar?

        2tocaram0ainda não

        Grave um vídeo tocando Deja vu (feat. Prince Royce) e mande pra gente!

        00:00 / 00:00
        outros vídeos desta música
        repetirqualidadeautomática
        • automática
        Outro vídeos desta música
          00:00 / 00:00
          automática
          • automática
          Acordes para:violão e guitarra
          dificuldadeexibiçõescontribuições
          fecharplay/pause subir/descer velocidade
            Acordes para:violão e guitarra
            acordes
            fechar
            OK