Objection Solo

Shakira

Tom: D
this is my first tab. i'm too lazy to tab out
the whole thing so here is the solo.
                                      MUNKY

standard tuning

e ----------------------------------------
b ----------------------------------------  
g ----------00----------------------------
d ----002244--420-------------------------  x2
a 2244-----------422445544--445544--------
e ------------------------33--------------


e ----------------------------------------
b ----------------------------------------
g ----------------------------------------
d ------------------------0-0-0-0---------
a 2222222255555555---------7-7-7-7--------
e ----------------33333333----------------


e ----------------------------------------
b ----------------------------------------
g ----------------------------------------
d ----------------22222222444444444-2-----
a 2222222255555555--------------------0-4-
e ----------------------------------------
Página 1 / 1

Letras e título
Acordes e artista

resetar configurações
OK