Cifra Club

Aprenda

Iron Soul

Shaman

Cifra: Principal (violão e guitarra)
Tom: F#
Look around, what do you see
C#5          B5
Caugh up in humility?
G#          
Too many souls are on their own
A5
Fallen angels moving on
F#5


There's more to get, more to find
C#5                  B5
Feelings of another kind
G#5 
The chice is set, take it soon
A5
For even you won't be immune now
F#5


I'd count it a miracle
D5             B5
If I ever see your smile
F#5                E5  
Throw away your illusions, dear
D5              B5
Don't keep trusting your own lies
A5                       G5


Who's in command of your heart, of your hope?
F#5      C#5             E5             B5
Past thoughts are vague, running out of control
F#5               C#5             E5           D5 
 

Yet someday, still alive
C#5          B5 
You will find a will to strive
G#5
For someone else will come along
A5
To lift you up, to right the wrong
F#5


And you will see within your eyes
C#5              B5   
Figures that comes back to life
A5
You'll touch the wounds that never heal
G#5
Love is raw, it's not for real
F#5

I'd count it a miracle
D5             B5
If I ever see your smile
F#5                E5  
Throw away your illusions, dear
D5              B5
Don't keep trusting your own lies
A5                       G5
Who's in command of your heart
D5               B5  
Of your hope?
F#      E5 
Past thoughts are vague
D5            B5 
As they soar high and low
A5                    G5

Who's in command of your heart, of your hope?
F#5      C#5             E5             B5
Past thoughts are vague, running out of control
F#5               C#5             E5           D5  

There was a time when the fields were green
The world was one, life was filled with something
There was a blue sea, on the horizon
There was a dream of a lasting fire
                       B5
We bottomed out, life's become so cruel
C#                        B5           C#5
Along the way, a regardless torment
C#5                 B5             G#5
Is there a cause that we would die for?
A5                 G#5 F#5
Is there a place where the spirit lives on?
A5                         B5

base solo - D# C# D# C# F# C  A G# C  C# F#

E|----------------------------------------------------------15*-14-------
B|---------------------12----------------12------------12----------15**--
G|------------9--11*------9--------------12------------12----------------
D|--7/9----11------------------12/14--14-----12/14--14-------------------
A|-----------------------------------------------------------------------
E|-----------------------------------------------------------------------

E|--------------------------------------------------------------------------
B|--15-15-15-15-13-13-13-13-12-12-12-12-10-10-10-10-15-15-13-13-13-13-12-12-
G|--------------------------------------------------------------------------
D|--------------------------------------------------------------------------
A|--------------------------------------------------------------------------
E|--------------------------------------------------------------------------

E|-------------------
B|--12-12-10-10-10-10
G|-------------------
D|-------------------
A|-------------------
E|-------------------


Who's in command of your heart, of your hope?
F#5      C#5             E5             B5
Past thoughts are vague, running out of control
F#5               C#5             E5           D5 


There's more to know and there's much more beyond
F#5             C#5            E5          B5
The faith that you've lost you will find on your
F#5            C#5         E5            D5
 own 

Obs: * Full bend and back
     ** Full bend
Composição de Andre Matos
Colaboração e revisão:
  • Juliano Honorato
3.900 exibições
    • ½ Tom
    • A
    • Bb
    • B
    • C
    • Db
    • D
    • Eb
    • E
    • F
    • F#
    • G
    • Ab
  • Adicionar à lista

    0 comentários

    Mostrar mais comentários

    Conseguiu tocar?

    0 Tocaram 0 Ainda não

    Grave um vídeo tocando Iron Soul e mande pra gente!

    00:00 / 00:00
    outros vídeos desta música
    repetir qualidade Automático
    Outros vídeos desta música
    00:00 / 00:00
    Automático

    Cifra Club Pro

    Aproveite o Cifra Club com benefícios exclusivos e sem anúncios
    Cifra Club Pro
    Aproveite o Cifra Club com benefícios exclusivos e sem anúncios
    OK