Cifra Club

In My Blood

Shawn Mendes

Cifra: Principal (violão e guitarra)
exibições 64.021
Tom: F (forma dos acordes no tom de C) Capotraste na 5ª casa
Afinação: D A D G B E

[Primeia parte]

Parte 1 de 2
E|-----------------------------------------------------|
B|-5----5---5---5--------------------------------------|
G|------------------2---2---2---2----------------------|
D|-----------------------------------------------------|
A|-3--3---3---3----------------------------------------|
E|----------------3---3---3---3------------------------|

Parte 2 de 2
E|-----------------------------------------------------|
B|-----------------------------------------------------|
G|---2---2---2---2/4--2----2---2---2-------------------|
D|-----------------------------------------------------|
A|-0---0---0---0---------------------------------------|
E|--------------------3--3---3---3---------------------|

[Primeira parte]

Help me
It's like the walls are caving in
Sometimes I feel like giving up
But I just can't

It isn't in my blood
Laying on the bathroom floor
Feeling nothing
I'm overwhelmed and insecure
Give me something
I could take to ease my mind slowly

Just have a drink
And you'll feel better
Just take her home
And you'll feel better
Keep telling me that it gets better
Does it ever?


[Segunda parte]

 C
Help me
               F7M/C
It's like the walls are caving in
     Am
Sometimes I feel like giving up
    F7M/C
No medicine is strong enough


         C
Someone help me
      F7M/C
I'm crawling in my skin
     Am
Sometimes I feel like giving up
    F7M/C
But I just can't


[Refrão]

                 C   C4  C7M(9)  C
It isn't in my blood
C/F  C4/F  C7M(9)/F        C/F      Am7
                  It isn't in my blood
Am7(b13)  G6/A  Am7   C/F  C4/F  C7M(9)/F  C/F

[Terceira parte]

C
  Looking through my phone again

Feeling anxious
F7M/C
         Afraid to be alone again

I hate this
Am
    I'm trying to find a way to chill
         F7M/C
Can't breathe, oh

Is there somebody who could

[Segunda parte]

 C
Help me?
               F7M/C
It's like the walls are caving in
     Am
Sometimes I feel like giving up
    F7M/C
No medicine is strong enough

         C
Someone help me
      F7M/C
I'm crawling in my skin
     Am
Sometimes I feel like giving up
    F7M/C
But I just can't

[Refrão]

                 C   C4  C7M(9)  C
It isn't in my blood
C/F  C4/F  C7M(9)/F        C/F      Am7
                  It isn't in my blood
Am7(b13)  G6/A  Am7   C/F  C4/F

C7M(9)/F             C/F  C  C4
         I need somebody now
C7M(9)            C    C/F  C4/F
       I need somebody now
C7M(9)/F             C/F     Am7  Am7(b13)
         Someone to help me out
G6/A             Am7  C/F  C4/F  C7M(9)/F
     I need somebody now
C/F

[Primeira parte]

 C
Help me
               F7M/C
It's like the walls are caving in
     Am
Sometimes I feel like giving up
    F7M/C
But I just can't

[Refrão]

                 C   C4  C7M(9)  C
It isn't in my blood
C/F  C4/F  C7M(9)/F        C/F      Am7
                  It isn't in my blood
Am7(b13)  G6/A  Am7   C/F  C4/F

C7M(9)/F        C/F     C   C4
       It isn't in my blood
C7M(9)             C    C/F  C4/F
       I need somebody now
C7M(9)/F        C/F     Am7  Am7(b13)
       It isn't in my blood
G6/A        Am7  C/F  C4/F
I need somebody now
C7M(9)/F        C/F     (Dedilhado final)
       It isn't in my blood

[Dedilhado final]

Parte 1 de 2
E|-----------------------------------------------------|
B|-5----5---5---5--------------------------------------|
G|------------------2---2---2---2----------------------|
D|-----------------------------------------------------|
A|-3--3---3---3----------------------------------------|
E|----------------3---3---3---3------------------------|

Parte 2 de 2
E|-----------------------------------------------------|
B|-----------------------------------------------------|
G|---2---2---2---2/4--2--------------------------------|
D|-----------------------------------------------------|
A|-0---0---0---0---------------------------------------|
E|--------------------3--------------------------------|
Acordes para:
    Colaboração e revisão:
    • Caico Antunes
    • Lucas Kappaun
    • Gabriel Marini

    0 comentários

    mostrar mais comentários

    Conseguiu tocar?

    23 tocaram 9 ainda não

    Grave um vídeo tocando In My Blood e mande pra gente!

    00:00 / 00:00
    outros vídeos desta música
    repetir qualidade Automático
    Outro vídeos desta música
    00:00 / 00:00
    Automático
    Capítulos
    • Tocando a música
    • Apresentação / Equipamentos
    • Afinação
    • Tocando primeira parte
    • Dedilhado primeira parte
    • Primeira Parte - Parte 1 de 2
    • Primeira Parte - Parte 2 de 2
    • Acordes segunda parte
    • Tocando segunda parte
    • Ritmo segunda parte
    • Acordes do refrão
    • Tocando refrão
    • Ritmo do refrão
    • Dicas da música
    • Tocando refrão final
    • Dedilhado Final
    • Encerramento
    OK