Cifra Club

Lost In Japan

Shawn Mendes

Cifra: Principal (violão e guitarra)
Tom: Bb (forma dos acordes no tom de A) Capotraste na 1ª casa
[Intro]
A7M  Bm7(9)  C#m/F#  D7M
A7M  Bm7(9)  C#m/F#  D7M

[TAB - Intro]

Parte 1 de 2
   A7M  Bm7(9) H.A. H.A.C#m/F# D7M
E|-4----9-12-------19---------9--10-9-------|
B|-5----7-----19-------9------10------12-10-|
G|-6----7--------------9------11------------|
D|------7--------------11-----0-------------|
A|-0----9--------------9--------------------|
E|------7-----------------------------------|
                         
Parte 2 de 2
   A7M  Bm7(9)  C#m/F#   D7M
E|-4----9-12p9-----------9------------------|
B|-5----7-------9--12p9--10-----------------|
G|-6----7-------9--------11-----------------|
D|-6----7-------11-------0------------------|
A|-0----9-------9---------------------------|
E|------7-----------------------------------|

[Primeira parte]

A7M
    All it takes is one flight
Bm7
    We'd be in the same timezone
F#m7
     Looking through your timeline
D7M                          A7M
    Seeing all the rainbows, I


I got an idea
Bm7
    And I know that it sounds crazy
F#m7
     I just wanna see ya
D7M    C#m7  Bm7
Oh, I gotta  ask

[TAB - Primeira parte]

Parte 1 de 3
   A7M        Bm7
E|---x-----x----x-----x---------------------|
B|-2-x---2-x--3-x---3-x---------------------|
G|-1-x---1-x--2-x---2-x---------------------|
D|-2-x---2-x--4-x---4-x---------------------|
A|-0-x-0---x--2-x-2---2h4-------------------|
E|---x-----x----x---------------------------|

Parte 2 de 3
   F#m7       D7M
E|---x-----x----x-----x---------------------|
B|-2-x---2-x--7-x---7-x---------------------|
G|-2-x---2-x--6-x---6-x---------------------|
D|-2-x---2-x--7-x---7-x---------------------|
A|---x-----x--5-x-5---5h7-------------------|
E|-2-x-2---x----x---------------------------|

Parte 1 de 3
   A7M        Bm7
E|---x-----x----x-----x---------------------|
B|-2-x---2-x--3-x---3-x---------------------|
G|-1-x---1-x--2-x---2-x---------------------|
D|-2-x---2-x--4-x---4-x---------------------|
A|-0-x-0---x--2-x-2---2h4-------------------|
E|---x-----x----x---------------------------|

Parte 3 de 3
   F#m7       D7M  C#m7  Bm7
E|---x-----x---------------x----------------|
B|-2-x---2-x--7-----5----3-x----------------|
G|-2-x---2-x--6-----4----2-x----------------|
D|-2-x---2-x--7-----6----4-x----------------|
A|---x-----x--5-----4----2-x----------------|
E|-2-x-2---x---------------x----------------|

[Refrão]

             A7M
Do you got plans tonight?
       Bm7
I'm a couple hundred miles 
        F#m7
From Japan, and I
        D7M
I was thinking I could fly 
           A7M
To your hotel tonight
       Bm7                     F#m7
'Cause I can't get you off my mind
                
Can't get you off my mind
 D7M          C#m7    Bm7
Can't get you off my mind (oh)

[TAB - Refrão]

Parte 1 de 2
   A7M     Bm7     F#m7    D7M
E|------------------------------------------|
B|-2-------3-------2-------7----------------|
G|-1-------2-------2-------6----------------|
D|-2-------4-------2-------7----------------|
A|-0-x--x--2-x--x----x--x--5-x--x-----------|
E|---x--x----x--x--2-x--x----x--x-----------|

Parte 2 de 2
   A7M     Bm7     F#m7    D7M  C#m7  Bm7
E|------------------------------------------|
B|-2-------3-------2-------7----5-----3-x---|
G|-1-------2-------2-------6----4-----2-x---|
D|-2-------4-------2-------7----6-----4-x---|
A|-0-x--x--2-x--x----x--x--5----4-----2-x---|
E|---x--x----x--x--2-x--x-------------------|

[Segunda parte]

A7M
    I could feel the tension
Bm7
    We could cut it with a knife
F#m7
I know it's more than just a friendship
D7M
I can hear you thinking about it, yeah

A7M
    Do I gotta convince you
Bm7
    That you shouldn't fall asleep?
F#m7
     It'll only be a couple hours
    D7M   C#m7    Bm7
And I'm about to leave

[Refrão]

             A7M
Do you got plans tonight?
       Bm7
I'm a couple hundred miles 
        F#m7
From Japan, and I
        D7M
I was thinking I could fly 
           A7M
To your hotel tonight
       Bm7                     F#m7
'Cause I can't get you off my mind
                
Can't get you off my mind
 D7M          C#m7    Bm7
Can't get you off my mind

             A7M
Do you got plans tonight?
       Bm7
I was hoping 
                          F#m7
I could get lost in your paradise
    D7M
The only thing 
                       A7M
I'm thinking 'bout is you and I
       Bm7                     F#m7
'Cause I can't get you off my mind

Can't get you off my mind
D7M      C#m7    Bm7    Bm7/E   A7M
I can't seem to get you off my mind

                  Bm7
Let's get lost tonight
                  F#m7
Let's get lost tonight , baby you and
D7M      C#m7    Bm7    Bm7/E   A7M
I can't seem to get you off my mind
                  Bm7
Let's get lost tonight
                  F#m7
Let's get lost tonight, baby you and
D7M      C#m7    Bm7    Bm7/E   A7M
I can't seem to get you off my mind
     Bm7   F#m7  D7M  C#m7  Bm7
Oh ohoh  ohoh  ohoh

[Refrão Final]

             A7M
Do you got plans tonight?
       Bm7
I'm a couple hundred miles 
        F#m7
From Japan, and I
        D7M
I was thinking I could fly 
           A7M
To your hotel tonight
       Bm7                     F#m7
'Cause I can't get you off my mind
   D7M          C#m7    Bm7
I can't get you off my mind

             A7M
Do you got plans tonight, baby?
       Bm7
I was hoping 
                          F#m7
I could get lost in your paradise
    D7M
The only thing 
                       A7M
I'm thinking 'bout is you and I
    Bm7                     F#m7
And I can't get you off my mind

Can't get you off my mind
D7M      C#m7    Bm7    Bm7/E   A7M
I can't seem to get you off my mind 

                  Bm7
Let's get lost tonight
                  F#m7
Let's get lost tonight , baby you and
D7M      C#m7    Bm7    Bm7/E   A7M
I can't seem to get you off my mind
                  Bm7
Let's get lost tonight
                  F#m7
Let's get lost tonight, baby you and
D7M      C#m7    Bm7    
I can't seem to get you off my mind
exibições 29.295
Acordes para:
    Composição: Nate Mercereau / Scott Harris / Shawn Mendes / Teddy Geiger Colaboração e revisão:
    • Caico Antunes
    • Lucas Kappaun
    • Gabriel Marini

    0 comentários

    mostrar mais comentários

    Conseguiu tocar?

    10 tocaram 5 ainda não

    Grave um vídeo tocando Lost In Japan e mande pra gente!

    00:00 / 00:00
    outros vídeos desta música
    repetir qualidade Automático
    Outros vídeos desta música
    00:00 / 00:00
    Automático
    Capítulos
    • Tocando a Música
    • Apresentação/Equipamentos
    • Acordes
    • Tocando Intro
    • Ensinando Intro Parte 1
    • Ensinando Intro Parte 2
    • Acordes do Dedilhado
    • Tocando Primeira Parte
    • Ensinando Dedilhado Primeira Parte
    • Tocando Refrão
    • Ensinando Ritmo Refrão
    • Acorde do Segundo Refrão
    • Tocando Segunda Parte / Refrão Final
    • Ensinando Ritmo da Segunda Parte
    • Tocando Refrão Final (Variação no ritmo)
    • Ensinando Refrão Final
    • Encerramento
    OK