Cifra Club

Aprenda

Señorita (feat. Camila Cabello)

Shawn Mendes

Cifra: Aula-completa (violão e guitarra)
Tom: Am
[Intro] Am  C7M  F7M  Em7  G

[TAB INTRO]

[RITMO]

Parte 01 de 04
  Am
E|-----------x-----x-------x----------------|
B|---5-----5-x---5-x-----5-x----------------|
G|---5-----5-x---5-x-----5-x----------------|
D|---7-----7-x---7-x-----7-x--x-------------|
A|-----7-7---x-----x---7---x----------------|
E|-5---------x-5---x-5-----x----------------|

Parte 02 de 04
  C7M
E|---------3-x-----x-------x----------------|
B|---5-----5-x---5-x-----5-x----------------|
G|---4-----4-x---4-x-----5-x----------------|
D|---5-5-5---x---5-x---5---x--x-------------|
A|-3---------x-3---x-3-----x----------------|
E|-----------x------------------------------|

Parte 03 de 04
  F7M
E|-------------x------x---------x-----------|
B|---10-----10-x---10-x------10-x-----------|
G|---9------9--x---9--x------9--x-----------|
D|---10-----10-x---10-x---10----x--x--------|
A|-8-----------x-8----x-8-------x-----------|
E|------8-8----x------x---------x-----------|

Parte 04 de 04
  Em7          G
E|-----------x-------x------------x---------|
B|---8-----8-x----12-x--------12--x---------|
G|---7-----7-x----12-x--------12--x---------|
D|---9-----9-x----12-x-----12-----x--x------|
A|-7---7-7---x-10----x--10--------x---------|
E|-----------x-------x------------x---------|


[INTRO SOLO TAB]


Parte 1 de 3
E|-----------------------------------------------------|
B|-13-------13-12--------13-12----12-13-------13-12----|
G|----14----------12--12-------14-------12----------12-|
D|-------14--------------------------------14----------|
A|-----------------------------------------------------|
E|-----------------------------------------------------|

Parte 2 de 3
E|-----------------------------------------------------|
B|----13-12-----------13-13-13-------13-13-13----------|
G|-12-------14-12--------------------------------------|
D|----------------15-----------15-15-------------------|
A|-----------------------------------------------------|
E|-----------------------------------------------------|

Parte 3 de 3
E|-----------------------------------------------------|
B|-12-13-12-13-12----12-13-12-13-12--------------------|
G|----------------12----------------14-14-14-----------|
D|-----------------------------------------------------|
A|-----------------------------------------------------|
E|-----------------------------------------------------|


[Refrão]

                    Am
I love it when you call me señorita
                   C7M
I wish I could pretend I didn't need ya
                   F7M
But every touch is oh, la, la, la

It's true, la, la, la
Em7
Oh, I should be runnin'
G                           Am
Oh, you keep me coming for ya

[Primeira parte]


Land in Miami
                             C7M
The air was hot from summer rain
 
Sweat drippin' off me
                        F7M
Before I even knew her name, la, la, la
             Em7              G
It felt like oh, la, la, la, yeah, no

Am
   Sapphire and moonlight
                            C7M
We danced for hours in the sand

Tequila sunrise
                          F7M
Her body fit right in my hands la la la
             Em7              G (PAUSA)
It felt like oh, la, la, la, yeah

[TAB Variação (PAUSA)}

Parte 04 de 04
  Em7          G
E|-----------x-------x----------------------|
B|---8-----8-x----12-x----------------------|
G|---7-----7-x----12-x----------------------|
D|---9-----9-x----12-x----------------------|
A|-7---7-7---x-10----x----------------------|
E|-----------x-------x----------------------|

[Refrão]

                    Am
I love it when you call me señorita
                   C7M         
I wish I could pretend I didn't need ya
                   F7M
But every touch is oh, la, la, la

It's true, la, la, la
Em7                     G
Oh, I should be runnin' Oh, you know 
                    Am
I love it when you call me señorita
                  C7M
I wish it wasn't so damn 

Hard to leave ya
                   F7M
But every touch is oh, la, la, la


It's true, la, la, la
Em7
Oh, I should be runnin'
G                           Am
Oh, you keep me coming for ya

[Segunda parte]


Locked in the hotel

There's just some things 
             C7M
That never change

You say we're just friends

But friends don't know 
             F7M
The way you taste, la, la, la
             Em7
'Cause you know it's been a long time 
                        G (PAUSA)
Coming Don't ya let me fall
Am
Oh, when your lips undress me

Hooked on your tongue
C7M
Oh, love, your kiss is deadly
(ATAQUE)
Don't stop

[TAB VARIAÇÂO ATAQUE]


  C7M
E|---------3-x-3-3--------------------------|
B|---5-----5-x-5-5--------------------------|
G|---4-----4-x-4-4--------------------------|
D|---5-5-5---x-5-5--------------------------|
A|-3---------x-3-3--------------------------|
E|-----------x------------------------------|
               ↓ ↓


[Refrão final]

                    Am
I love it when you call me señorita
                   C7M
I wish I could pretend I didn't need ya
                   F7M
But every touch is oh, la, la, la

It's true, la, la, la
Em7
Oh, I should be runnin'
G
Oh, you know 
                    Am
I love it when you call me señorita
                  C7M
I wish it wasn't so damn 

Hard to leave ya
                   F7M
But every touch is oh, la, la, la

It's true, la, la, la
Em7
Oh, I should be runnin'
G                           Am
Oh, you keep me coming for ya
                                C7M
All along I've been coming for ya


                                  F7M
And I hope it means something to you
                                  Em7                
Call my name, I'll be coming for ya 
            G                       Am
Coming for ya (coming for you) For ya
     C7M
For ya (oh, she loves it when I come)
     F7M   Em7
For ya     Oh, I should be runnin'
G
Oh, you keep me coming for ya
Composição de Ali Tamposi / Andrew Wotmnan / Benjamin Levin / Camila Cabello / Charlotte Emma / Jack Patterson / Magnus August Hoiberg / Shawn Mendes
Colaboração e revisão:
  • Caico Antunes
4.854 exibições
  • Simplificar cifra
    • ½ Tom
    • Am
    • Bbm
    • Bm
    • Cm
    • C#m
    • Dm
    • Ebm
    • Em
    • Fm
    • F#m
    • Gm
    • G#m
  • Adicionar à lista

    0 comentários

    Mostrar mais comentários

    Conseguiu tocar?

    2 Tocaram 0 Ainda não

    Grave um vídeo tocando Señorita (feat. Camila Cabello) e mande pra gente!

    00:00 / 00:00
    outros vídeos desta música
    repetir qualidade Automático
    Outros vídeos desta música
    00:00 / 00:00
    Automático
    Capítulos
    • Tocando a Música
    • Apresentação / Equipamentos
    • Acordes da Música
    • Tocando Introdução
    • Ensinando Ritmo - Lento
    • Ensinando Ritmo - Parte 1 de 4
    • Ensinando Ritmo - Parte 2 de 4
    • Ensinando Ritmo - Parte 3 de 4
    • Ensinando Ritmo - Parte 4 de 4
    • Dicas Primeira Parte
    • Tocando a Primeira Parte
    • Ensinando Variação (Pausa)
    • Dicas Refrão e Segunda Parte
    • Tocando Refrão e Segunda Parte
    • Ensinando Variação (Ataque)
    • Dicas Refrão Final
    • Tocando Solo
    • Ensinando Solo - Lento
    • Ensinando Solo - Parte 1 de 3
    • Ensinando Solo - Parte 2 de 3
    • Ensinando Solo - Parte 3 de 3
    • Encerramento
    OK