Cifra Club

There's Nothing Holdin' Me Back

Shawn Mendes

Cifra: Principal (violão e guitarra)
exibições 219.845
Tom: D
[Intro]

Parte 1
E|----------------------------------------------------|
B|----------------------------------------------------|
G|----------------------------------------------------|
D|---2h4-2----2h4-2----4h5-4----4h5-4-----------------|
A|-------------------2--------2-----------------------|
E|-3--------3-----------------------------------------|

Parte 2
E|----------------------------------------------------|
B|----------------------------------------------------|
G|----------------------------------------------------|
D|---2h4-2----2h4-2----2h4-2----2h4-2-----------------|
A|-0--------0--------0--------0-----------------------|
E|----------------------------------------------------|

[Primeira Parte]

I wanna follow where she goes
I think about her and she knows it
I wanna let her take control
'Cause every time 
That she gets close, yeah    
She pulls me in  enough 
To keep me guessing, mmm
Maybe I should stop 
                         A
And start confessing Confessing, yeah

[TAB Primeira parte]

Parte 1
E|----x-----x-----x-----x-----x-----x-----x-----x-----|
B|----x-----x-----x-----x-----x-----x-----x-----x-----|
G|----x-----x-----x-----x-----x-----x-----x-----x-----|
D|----x-----x-----x-----x-----x-----x-----x-----x-----|
A|----x--5--x-----x--5--x-----x--5--x-----x--5--x-----|
E|-3--x-----x--7--x-----x--5--x-----x--5--x-----x-----|
    

Parte 2                   
E|----x-----x-----x-----x-----x-----x-----------------|
B|----x-----x-----x-----x-----x-----x-----------------|
G|----x-----x-----x-----x-----x-----x-----------------|
D|----x-----x-----x-----x-----x-----x-----------------|
A|----x--5--x-----x--5--x-----x--5--x-----------------|
E|-3--x-----x--7--x-----x--5--x-----x--5--------------|

[Refrão]

G                   D9
  Oh, I've been shaking
   Bm                     D9
I love it when you go crazy
     A                      D9
You take all my inhibitions
 A                        D9
Baby, there's nothing holdin' me back
G                 D9
  You take me places 
      Bm                D9
That tear up my reputation
   A                    D9
Manipulate my decisions
 A                        D9
Baby, there's nothing holdin' me back

(G  D9  Bm  D9  A  D9  A)

                    D9
There's nothing holdin' me back

(G  D9  Bm  D9  A  D9  A)

                    D9
There's nothing holdin' me back

[Segunda Parte]

She says that she's never afraid
Just picture everybody naked
She really doesn't like to wait
Not really into hesitation

[TAB Segunda Parte]

E|-2-----2-----2-----2-----2-----2-----2-----2--------|
B|----3-----2-----2-----0-----3-----2-----2-----------|
G|----------------------------------------------------|
D|-0-----0-----0-----0-----0-----0-----0-----0--------|
A|----2-----0-----0-----------2-----0-----0-----------|
E|----------------------3-----------------------------|

 G       D9  Bm
Pulls me in  enough 
     D9      A      D9    A  D9
To keep me guessing    whoa
 G    D9  Bm
Maybe I should stop 
      D9      A      D9     A
And start confessing    confessing, yeah

[Refrão]

G                   D9
  Oh, I've been shaking
   Bm                     D9
I love it when you go crazy
     A                      D9
You take all my inhibitions
 A                        D9
Baby, there's nothing holdin' me back
G                 D9
  You take me places 
      Bm                D9
That tear up my reputation
   A                    D9
Manipulate my decisions
 A                        D9
Baby, there's nothing holdin' me back

(G  D9  Bm  D9  A  D9  A)

                    D9
There's nothing holdin' me back

(G  D9  Bm  D9  A  D9  A  D9)

[Terceira Parte]

              G
'Cause if we lost our minds 
D9      Bm              D9
And we took it way too far
    A
I know we'd be alright 
  D9  A
Know we would be alright
D9          G
If you are by my side 
D9       Bm
And we stumbled in the dark
D9      A
I know we'd be alright
D9      A
I know we would be alright

              G
'Cause if we lost our minds
D9      Bm              D9
And we took it way too far
    A
I know we'd be alright 
D9      A
I know we would be alright
D9          G
If you are by my side 
D9       Bm
And we stumbled in the dark
D9      A
I know we'd be alright
D9  A
   We would be alright

[Refrão]

G                   D9
  Oh, I've been shaking
   Bm                     D9
I love it when you go crazy
     A                      D9
You take all my inhibitions
 A                        D9
Baby, there's nothing holdin' me back
G                 D9
  You take me places 
      Bm                D9
That tear up my reputation
   A                    D9
Manipulate my decisions
 A                        D9
Baby, there's nothing holdin' me back

(G  D9  Bm  D9  A  D9  A)

                    D9
There's nothing holdin' me back
G         D9   Bm
  I feel so free 
             D9   A       D9
When you're with me, baby
A
  Baby, there's nothing holdin' me back

[TAB Solo Refrão]

Parte 1
E|----------------------------------------------------|
B|----------------------------------------------------|
G|----------------------------------------------------|
D|---2h4-2----2h4-2----4h5-4----4h5-2h4---------------|
A|-------------------2--------2-----------------------|
E|-3--------3-----------------------------------------|

Parte 2
E|----------------------------------------------------|
B|----------------------------------------------------|
G|----------------------------------------------------|
D|---2h4-2----2h4-2----2h4-2----2h4-2p0---------------|
A|-0--------0--------0--------0-----------------------|
E|----------------------------------------------------|
Acordes para:
    Colaboração e revisão:
    • Caico Antunes
    • Lucas Kappaun
    • Raíra Andrade

    0 comentários

    mostrar mais comentários

    Conseguiu tocar?

    25tocaram11ainda não

    Grave um vídeo tocando There's Nothing Holdin' Me Back e mande pra gente!

    00:00 / 00:00
    outros vídeos desta música
    repetirqualidadeAutomático
    Outro vídeos desta música
      00:00 / 00:00
      Capítulos
      • Tocando a música
      • Apresentação / Equipamentos
      • Tocando Introdução
      • Ensinando Introdução
      • Ensinando Introdução - Parte 1 de 2
      • Ensinando Introdução - Parte 2 de 2
      • Tocando Primeira Parte
      • Ensinando Riff - Primeira Parte
      • Acordes Refrão
      • Tocando Refrão
      • Ensinando Refrão - Parte 1
      • Dicas Segunda Parte
      • Tocando Segunda Parte
      • Ensinando Segunda Parte (dedilhado)
      • Ensinando Segunda Parte (ritmo)
      • Dicas Refrão - Terceira Parte
      • Tocando Terceira Parte
      • Dicas Refrão - Final
      • Tocando final
      • Tocando Solo do Refrão
      • Ensinando Solo - Parte 1 de 2
      • Ensinando Solo - Parte 2 de 2
      • Encerramento
      OK