I Knew It Would Happen This Way

She & Him

tom: A
Intro: E  D  E  D  E  D  Bm  C#


E|------------------------------------------------------0---0-------------------|
B|-2-2-2-0---0~-2~---------2-2-2-0--------0---0h2-0-------0---0-0h2-0-2~--------|
G|---------2----------2~-----------2--------2-------2~--------------------------|
D|-----------------3~-----------------------------------------------------------|
A|------------------------------------------------------------------------------|
E|------------------------------------------------------------------------------|
   F#m       F#mmaj7       F#m7      F#m6 D9(6)                      F#m  G#m  C#


F#m                    F#mmaj7
Hair got caught in the sunlight, darling
    F#m7              F#m6
But I just wasted the day
  D9(6)                    F#m  G#m C#
I knew it would happen this way
F#m                 F#mmaj7
Can't get up in the morning lately
    F#m7                 F#m6
And I'm  just stuck in a dream
    D9(6)                     F#m G#m C#
I'm always in this ship in the stream


F#m F#mmaj7 F#m7    F#m6    D9(6)           F#m  G#m C#
I'm not wasting away and you don't want me anymore
F#m                        F#mmaj7
You're free to do what you want, I know
   F#m7                F#m6
But I can't be on the clock
D9(6)                     F#m
I won't be waiting on the dock


E|-----------0-------------------------------------------------|
B|-----2~--3---3~----------------------------------------------|
G|-1-2---------------------------------------------------------|
D|-----------------------0~--0-0h2-4~--4-0h2h4-0--2--4~--------|
A|-------------------0h2---------------------------------------|
E|-------------------------------------------------------------|
       F#m7    D9(6)                                F#m

Página 1 / 1

Letras e título
Acordes e artista

resetar configurações
OK