Cifra Club

Hikaru Nara (Opening 1)

Shigatsu Wa Kimi No Uso

Cifra: Principal (violão e guitarra)
tom: F#m
E|-------------|------10-9--------|----------------|------------|----------------|-----9-|-10-9---------|
B|--10--9-10-12|-10-12----12-10---|----9--10--12---|-10-9-10-12-|-10--10-9-10-12-|-10----|-------12-10--|
G|-------------|------------------|-11-------------|------------|----------------|-------|--------------|
D|-------------|------------------|----------------|------------|----------------|-------|--------------|
A|-------------|------------------|----------------|------------|----------------|-------|--------------|
E|-------------|------------------|----------------|------------|----------------|-------|--------------|

E|------------------|---------------|-------0-0---------|--------------------|---2-0----------|
B|-10-9-------------|-10---9---9-10-|---2-3-----3-2---0-|-----0--3-3-2-0-----|-------3-2-0--0-|
G|------11----9--11-|-------11------|-2-------------2---|-1-2------------1-2-|-2--------------|
D|---------12-------|---------------|-------------------|--------------------|----------------|
A|------------------|---------------|-------------------|--------------------|----------------|
E|------------------|---------------|-------------------|--------------------|----------------|

E|----|-0--2-0----------|------------------0-|---0-5-------|-------|-------|-------|-5-4----|
B|-2-2|--------3-2-3--0-|-3-3-3--3-2-0--0----|-3-----2-0---|-3-2-0-|-----2-|-2-3-0-|-----6--|
G|----|-----------------|-------------2------|-----------2-|-------|-2-2---|-------|--------|
D|----|-----------------|--------------------|-------------|-------|-------|-------|--------|
A|----|-----------------|--------------------|-------------|-------|-------|-------|--------|
E|----|-----------------|--------------------|-------------|-------|-------|-------|--------|

E|---0---0--0-0-0--0--------|-0-0--0--0-0-0-0-0-----------|--------------0-2-|-4-2-1-|
B|--------------------------|-------------------------0-2-|-0-0---0---2-3----|-------|
G|-2------------------2--2--|-------------------2-2-2-----|-----2---2--------|-------|
D|--------------------------|-----------------------------|------------------|-------|
A|--------------------------|-----------------------------|------------------|-------|
E|--------------------------|-----------------------------|------------------|-------|

E|-2-4-|------------|----------------|------------|-------9-|------------|---------------------------|
B|-----|-10-9-10-12-|-----12-10-9-10-|-10-9-10-12-|-10-12---|-10-9--10-9-|-10-9-10-12-----12-10-9-10-|
G|-----|------------|-9-9------------|------------|---------|------------|------------9-9------------|
D|-----|------------|----------------|------------|---------|------------|---------------------------|
A|-----|------------|----------------|------------|---------|------------|---------------------------|
E|-----|------------|----------------|------------|---------|------------|---------------------------|

E|9--9--9------------|-----------------|------------|-------------|-------------12-10-9-|-----------------|
B|--------12-10-9----|-------10--------|-10-9-10-12-|--12-10-9-10-|--10--9-10-12--------|-10-9-10-10-9-10-|
G|---------------11--|11-9-11--11-9-11-|------------|-9-----------|-9-------------------|-----------------|
D|-------------------|-----------------|------------|-------------|---------------------|-----------------|
A|-------------------|-----------------|------------|-------------|---------------------|-----------------|
E|-------------------|-----------------|------------|-------------|---------------------|-----------------|

E|-9-9--9---------9-10-9-|---9-9-9------------|--------------------|-----------|-----------|
B|-------12-10-12--------|---------12-10-9----|-10-9-10-9-10-9-----|-----------|-----------|
G|-----------------------|-11--------------11-|---------------11-9-|-9-11-9-11-|-9-11-9-11-|
D|-----------------------|--------------------|--------------------|-----------|-----------|
A|-----------------------|--------------------|--------------------|-----------|-----------|
E|-----------------------|--------------------|--------------------|-----------|-----------|

E|--------------------------|----9-9-9------------|
B|---9-10-9-10-9-10-9-10-12-|-12------12-10-9-----|
G|-11-----------------------|----------------11---|
D|--------------------------|---------------------|
A|--------------------------|---------------------|
E|--------------------------|---------------------|

00:00 / 00:00
Outros vídeos desta música
Repetir
Outros vídeos desta música
Compositor não encontrado.
Colaboração e revisão:
  • Guilherme Leite
11.755 exibições
    • ½ Tom
    • Am
    • Bbm
    • Bm
    • Cm
    • C#m
    • Dm
    • Ebm
    • Em
    • Fm
    • F#m
    • Gm
    • G#m
  • Adicionar à lista

    0 comentários

    Ver todos os comentários

    Entre para oCifra Club PRO

    Tenha acesso a benefícios exclusivos no App e no Site

    • Chega de anúncios

    • Prioridade de compra em lançamentos

    • Mais recursos no app do Afinador

    • Atendimento Prioritário

    • Descontos nos produtos Cifra Club

    • Ajude a produzir mais conteúdo

    00:00 / 00:00

    Cifra Club Pro

    Aproveite o Cifra Club com benefícios exclusivos e sem anúncios
    Cifra Club Pro
    Aproveite o Cifra Club com benefícios exclusivos e sem anúncios
    OK