Cifra Club

Aprenda

Sing To You (feat. Monty Datta)

Shiloh Dynasty

Cifra: Principal (violão e guitarra)
Tom: A
[Intro] C#4  D  C#m7  D7M(9)

 C#4 
E|----------9-----------------9-------------|
B|-------10------10--------10------10-------|
G|----11------11--------11------11----------|
D|-11----------------11---------------------|
A|------------------------------------------|
E|------------------------------------------| (2X)

D
E|-------5------------5---------------------|
B|-----7-----7------7-----7-----------------|
G|---7-----7------7-----7-------------------|
D|-0------------0---------------------------|
A|------------------------------------------|
E|------------------------------------------| (2X)

C#m7
E|-------4------------4---------------------|
B|-----5-----5------5-----5-----------------|
G|---4-----4------4-----4-------------------|
D|------------------------------------------|
A|-4------------4---------------------------|
E|------------------------------------------| (2X)

D7M(9)
E|-----------------------------------------|
B|-------4------------4--------------------|
G|-----6-----6------6-----6----------------|
D|---4-----4------4-----4------------------|
A|-5------------5--------------------------|
E|-----------------------------------------| (2X)

C#4
Dance with me
         D
And I'll sing to you

A symphony
           C#m7
Won't you kiss me?
D7M(9)
Send me out, please

C#4
She's a goddess
                    D
A whish from the stars
              C#m7
In my heart
D7M(9)
Ooh...yeah

C#4
Dance with me

        D
And I'll sing you
             C#m7
In my heart
D7M(9)
Ooh... Yeah

C#4
Dance with me
         D
And I'll sing to you

A symphony
           C#m7
Won't you kiss me?
D7M(9)
Send me out, please

C#4
Dance with me
         D
And I'll sing to you

A symphony
           Em
Won't you kiss me?

Send me out, please

Bm
Dance with me
        D
And I'll sing to you

A symphony
          C#m7
Won't you kiss me?
D7M(9)
Send me out, please

C#4
Dance whit me
        D
And i'll sing to you

A symphony
          C#m7
Won't you kiss me?
D7M(9)
Send me out, please

C#4
   She's a goddess
                      D
A whish from the stars
                C#m7
In my heart
D7M(9)
Ooh...yeah
Composição de Shiloh Dynasty
Colaboração e revisão:
  • joao neto
  • vinifandubs
5.662 exibições
    • ½ Tom
    • A
    • Bb
    • B
    • C
    • Db
    • D
    • Eb
    • E
    • F
    • F#
    • G
    • Ab
  • Adicionar à lista

    0 comentários

    Mostrar mais comentários

    Conseguiu tocar?

    1 Tocaram 6 Ainda não

    Grave um vídeo tocando Sing To You (feat. Monty Datta) e mande pra gente!

    00:00 / 00:00
    outros vídeos desta música
    repetir qualidade Automático
    Outros vídeos desta música
    00:00 / 00:00
    Automático
    OK