Cifra Club

Venus

Shocking Blue

Tab de baixo: Principal
[Introdução]

Parte 01 de 01 ( tocar 2x )

G|----------------------------------------------|
D|-----5h7-7-7----------5h7-7-7-----------------|
A|-7-7---------4h5--7-7---------4h5-------------|
E|----------------------------------------------|

[Primeira Parte]

A goddess on a mountain top...

Parte 01 de 02 ( tocar 2x )

G|----------------------------------------------|
D|-----5h7-7-7----------5h7-7-7-----------------|
A|-7-7---------4h5--7-7---------4h5-------------|
E|----------------------------------------------|

Parte 02 de 02

G|----------------------------------------------|
D|-----5h7-7-7----------5h7-7-7-----------------|
A|-7-7---------4h5--7-7---------4h5-------------|
E|----------------------------------------------|

G|----------------------------------------------|
D|-----5h7-7-7----------------------------------|
A|-7-7---------4h5--7---------------------------|
E|----------------------------------------------|

[Refrão]
 
She's got it...

Parte 01 de 03

G|----------------------------------------------|
D|-------10h12-12-12------------10h12-12-12-----|
A|-12-12-------------9h10-12-12-----------------|
E|----------------------------------------------|

G|----------------------------------------------|
D|-----5h7-7-7----------5h7-7-7-----------------|
A|-7-7---------4h5--7-7---------7---------------|
E|----------------------------------------------|

Parte 02 de 03

G|----------------------------------------------|
D|-10-10-10-10--10-10-10-10--9-9--7-7-----------|
A|------------------------------------10-10-9-9-|
E|----------------------------------------------|

G|----------------------------------------------|
D|-----5h7-7-7----------5h7-7-7-----------------|
A|-7-7---------4h5--7-7---------7---------------|
E|----------------------------------------------|

Parte 03 de 03

G|----------------------------------------------|
D|-10-10-10-10--10-10-10-10--9-9--7-7-----------|
A|------------------------------------10-10-9-9-|
E|----------------------------------------------|

G|----------------------------------------------|
D|-----5h7-7-7----------5h7-7-7-----------------|
A|-7-7---------4h5--7-7---------4h5-------------|
E|----------------------------------------------|

[Solo de Guitarra]

Parte 01 de 01 ( Tocar 4x )

G|----------------------------------------------|
D|-----5h7-7-7----------5h7-7-7-----------------|
A|-7-7---------4h5--7-7---------4h5-------------|
E|----------------------------------------------|

[Segunda Parte]

Her weapons were her crystal eyes...

Parte 01 de 02 ( tocar 2x )

G|----------------------------------------------|
D|-----5h7-7-7----------5h7-7-7-----------------|
A|-7-7---------4h5--7-7---------4h5-------------|
E|----------------------------------------------|

Parte 02 de 02

G|----------------------------------------------|
D|-----5h7-7-7----------5h7-7-7-----------------|
A|-7-7---------4h5--7-7---------4h5-------------|
E|----------------------------------------------|

G|----------------------------------------------|
D|-----5h7-7-7----------------------------------|
A|-7-7---------4h5--7---------------------------|
E|----------------------------------------------|

[Refrão]
 
She's got it...

Parte 01 de 03

G|----------------------------------------------|
D|-------10h12-12-12------------10h12-12-12-----|
A|-12-12-------------9h10-12-12-----------------|
E|----------------------------------------------|

G|----------------------------------------------|
D|-10h12-----5h7-7-7----------5h7-7-7-----------|
A|-------7-7---------4h5--7-7---------7---------|
E|----------------------------------------------|

Parte 02 de 03

G|----------------------------------------------|
D|-10-10-10-10--10-10-10-10--9-9--7-7-----------|
A|------------------------------------10-10-9-9-|
E|----------------------------------------------|

G|----------------------------------------------|
D|-----5h7-7-7----------5h7-7-7-----------------|
A|-7-7---------4h5--7-7---------7---------------|
E|----------------------------------------------|

Parte 03 de 03

G|----------------------------------------------|
D|-10-10-10-10--10-10-10-10--9-9--7-7-----------|
A|------------------------------------10-10-9-9-|
E|----------------------------------------------|

G|----------------------------------------------|
D|-----5h7-7-7----------5h7-7-7-----------------|
A|-7-7---------4h5--7-7---------7h9-------------|
E|----------------------------------------------|

G|----------------------------------------------|
D|-7h9-7h9--7h9-7h9-----------------------------|
A|----------------------------------------------|
E|----------------------------------------------|

[Introdução]

Parte 01 de 02 ( tocar 3x )

G|----------------------------------------------|
D|-----5h7-7-7----------5h7-7-7-----------------|
A|-7-7---------4h5--7-7---------4h5-------------|
E|----------------------------------------------|

Parte 02 de 02

G|----------------------------------------------|
D|-----5h7-7-7----------------------------------|
A|-7-7---------4h5--7---------------------------|
E|----------------------------------------------|

[Refrão]
 
She's got it...

Parte 01 de 03

G|----------------------------------------------|
D|-------10h12-12-12------------10h12-12-12-10--|
A|-12-12-------------9h10-12-12-----------------|
E|----------------------------------------------|

G|----------------------------------------------|
D|---------5h7-7-7----------5h7-7-7-------------|
A|-12--7-7---------4h5--7-7---------7-----------|
E|----------------------------------------------|

Parte 02 de 03

G|----------------------------------------------|
D|-10-10-10-10--10-10-10-10--9-9--7-7-----------|
A|------------------------------------10-10-9-9-|
E|----------------------------------------------|

G|----------------------------------------------|
D|-----5h7-7-7----------5h7-7-7-----------------|
A|-7-7---------4h5--7-7---------7---------------|
E|----------------------------------------------|

Parte 03 de 03

G|----------------------------------------------|
D|-10-10-10-10--10-10-10-10--9-9--7-7-----------|
A|------------------------------------10-10-9-9-|
E|----------------------------------------------|

G|----------------------------------------------|
D|-----5h7-7-7----------5h7-7-7-----------------|
A|-7-7---------4h5--7-7---------7h9-------------|
E|----------------------------------------------|

G|----------------------------------------------|
D|-7h9-7h9--7h9-7h9-----------------------------|
A|----------------------------------------------|
E|----------------------------------------------|

[Final]

Parte 01 de 02 ( tocar 4x + fade out )

G|----------------------------------------------|
D|-----5h7-7-7----------5h7-7-7-----------------|
A|-7-7---------4h5--7-7---------4h5-------------|
E|----------------------------------------------|
00:00 / 00:00
Outros vídeos desta música
Repetir
Outros vídeos desta música
Composição de Robbie Van Leeuwen
Colaboração e revisão:
  • Reginaldo Costa
2.317 exibições

0 comentários

Ver todos os comentários

Entre para oCifra Club PRO

Tenha acesso a benefícios exclusivos no App e no Site

  • Chega de anúncios

  • Prioridade de compra em lançamentos

  • Mais recursos no app do Afinador

  • Atendimento Prioritário

  • Descontos nos produtos Cifra Club

  • Ajude a produzir mais conteúdo

00:00 / 00:00
Capítulos
  • Tocando a música
  • Apresentação / Equipamentos
  • Tab - Introdução 1
  • Primeira Parte - Parte 1 de 2
  • Primeira Parte - Parte 2 de 2
  • Dicas Refrão - Solo Guitarra
  • Refrão 1 - Parte 1 de 3
  • Refrão 1 - Parte 2 de 3
  • Refrão 1 - Parte 3 de 3
  • Solo de Guitarra
  • Dicas Refrão 2 - Final
  • Refrão 2 - Parte 1 de 3
  • Refrão 2 - Parte 2 de 3
  • Refrão 2 - Parte 3 de 3
  • Refrão 3 - Parte 1 de 3
  • Refrão 3 - Parte 2 de 3
  • Refrão 3 - Parte 3 de 3
  • Encerramento

Cifra Club Pro

Aproveite o Cifra Club com benefícios exclusivos e sem anúncios
Cifra Club Pro
Aproveite o Cifra Club com benefícios exclusivos e sem anúncios
OK