Do You Feel The Same

Silverchair

Composição de: Daniel Johns
tom: G
Album-Neon Ballroom
Tabbed by-Mobeen-ur-Rehman

Tunig-standard


intro/verse:electric guitar with distortion

------------------------------------------|
------------------------------------------|
------------------------------------------|
-7-0*-8-7h5--3-0*-3-5s7-------------------|
-5-0*--------3-0*-------------------------|
-5-0*--------1-0*-------------------------|

*-Stop

Chorus: Acoustic Guitar.
chords:
 ?  Am  C  ?  Am  F
 0 -0---0--0---0--1-------|
 0--1---1--0---1--1-------|
 4--2---0--4---2--2-------|
 5--2---2--5---2--3-------|
 5--0---3--5---0--3-------|
 3------3--3------1-------|

elecrtic:
------------------------------------------|
------------------------------------------|
------------------------------------------|
-7--3----5-5--7---3--5--------------------|
-5--3----5-3--5---3--5--------------------|
-5--1----3-3--5---1--3--------------------|
"do you feel the same anyway..now you've come..do you feel the same"

Interlude:(Electric)
------------------------------------------|
------------------------------------------|
------------------------------------------|
-7~--3~----5~-----------------------------|
-5~--3~----5~-----------------------------|
-5~--1~----3~-----------------------------|

    ~:high tremolo
Página 1 / 1

Letras e título
Acordes e artista

resetar configurações
OK