Cifra Club

Israel´s Son

Silverchair

Cifra: Principal (violão e guitarra)
tom: C
Afinação: DADGBE

(Começa com o baixo)

Introdução:

G|-------------------|4x somente o baixo
D|-------------------|
A|----------3------5-|
D|--0-0-3s5--0-3s5---|
 |                   |
B|-------------------|  (x3)
B|-------------------|A guitarra entra na quinta   
G|-------------------|vez do riff do baixo e segue  
D|-------------------|conforme a tablatura demonstra.
A|--5-5-5-5----------|
D|--0-0-0-0----------|

Na  4x :
B|-------------------|
B|-------------------|  
G|-------------------|  
D|--3----------------| 
A|--3----------------|
D|--3----------------|

Verso:
   PM-|              PM-|               PM-|              PM-|
E|----------------------------------------------------------------------------| 1x 
B|----------------------------------------------------------------------------|"mudo"
G|----------------------------------------------------------------------------| 2x com
D|----------------------------------------------------------------------------|letra
A|-0-0----3-------5---0-0----3-------5---0-0----3-------5---0-0----3-------5--|
D|-0-0-3h5--0-3s5(5)--0-0-3h5--0-3h5(5)--0-0-3h5--0-3s5(5)--0-0-3h5--0-3h5(5)-|
   Hate is what I feel for you,        and I want you to know that I want you dead
   You're late for the execution...    If you're not here soon, I'll kill your friend instead

Refrão:
   PM-|            PM-|            PM-|
E|-----------------------------------------------------------------|
B|-----------------------------------------------------------------|
G|-----------------------------------------------------------------|
D|-----------------------------------------------------------------|
A|-0-0-5-3--0-2-3--0-0-5-3--0-2-3--0-0-5-3--0-2-3--1-1-1-1/6-6-6-6-|
D|-0-0-5-3--0-2-3--0-0-5-3--0-2-3--0-0-5-3--0-2-3--1-1-1-1/6-6-6-6-|
   All the pain I feel, couldn't start to heal, although I would like it to

Verso:
   PM-|              PM-|               PM-|              PM-|
E|----------------------------------------------------------------------------| 1x 
B|----------------------------------------------------------------------------|"mudo"
G|----------------------------------------------------------------------------| 2x com
D|----------------------------------------------------------------------------|letra
A|-0-0----3-------5---0-0----3-------5---0-0----3-------5---0-0----3-------5--|
D|-0-0-3h5--0-3s5(5)--0-0-3h5--0-3h5(5)--0-0-3h5--0-3s5(5)--0-0-3h5--0-3h5(5)-|
   I hate you and your apathy, you can leave, you can leave, I don't want you here
   I'm playing this pantomime, but I don't see you showing any signs of fear

Refrão:
   PM-|            PM-|            PM-|
E|-----------------------------------------------------------------| (x2)
B|-----------------------------------------------------------------|
G|-----------------------------------------------------------------|
D|-----------------------------------------------------------------|
A|-0-0-5-3--0-2-3--0-0-5-3--0-2-3--0-0-5-3--0-2-3--1-1-1-1/6-6-6-6-|
D|-0-0-5-3--0-2-3--0-0-5-3--0-2-3--0-0-5-3--0-2-3--1-1-1-1/6-6-6-6-|
All the pain I feel, couldn't start to heal, although I would like it to
This time I'm for real, my pain can not heal, you will be dead when I'm through

Guitarra 1              fdbk.       fdbk.
E|-------------------------X-----------X-------------------------------|
B|------------------------------------------XX-------------------------|
G|-0-------------------------------------------------------------------|
D|-0-------------------------------------------------------------------|
A|-0--------------------------12---------------------------------------|
D|---------------------------------------------------------------------|

Guitarra 2      fdbk.
E|------------X--X-----------------------------------------------------|
B|---------------------------------------------------------------------|
G|-----------------------0--0------------------------------------------|
D|-0------------------------0--------------------------0--XX/----------|
A|-0------------------------------------------------------0--XX/-------|
D|-0-------------------------------------------------------------------|

Hate is what I feel for you, and I want you to know that I want you dead
You're late for the execution... If you're not here soon, I'll kill your friend instead

Refrão

   PM-|            PM-|            PM-|
E|-----------------------------------------------------------------|(x2)
B|-----------------------------------------------------------------|
G|-----------------------------------------------------------------|
D|-----------------------------------------------------------------|
A|-0-0-5-3--0-2-3--0-0-5-3--0-2-3--0-0-5-3--0-2-3--1-1-1-1/6-6-6-6-|
D|-0-0-5-3--0-2-3--0-0-5-3--0-2-3--0-0-5-3--0-2-3--1-1-1-1/6-6-6-6-|
Na 2a vez  repita o final( escute a música e pegue o ritmo).

Final:
  PM-|                
E|------------------|Assim segue até o final com algumas mudanças no ritmo e etc.
B|------------------|Ouvir a música é essensial para conseguir tirá-la corretamente, 
G|------------------|pois possue algumas variações.
D|------------------|
A|-0-0-5-3------3~--|
D|-0-0-5-3-3h5-5--0-|
Pain and execution, put your hands in the air
Put your hands in the air, the air... yeah

E|---------------------------------------|
B|---------------------------------------|
G|---------------------------------------|
D|-0-------------------O-----------------|
A|-0-------------------O-----------------|
D|-0-------------------O-----------------|
Composição de D. Johns
Colaboração e revisão:
  • André Cristino
40.034 exibições
    • ½ Tom
    • A
    • Bb
    • B
    • C
    • Db
    • D
    • Eb
    • E
    • F
    • F#
    • G
    • Ab
  • Adicionar à lista

    0 comentários

    Ver todos os comentários

    Conseguiu tocar?

    6 Tocaram 1 Ainda não

    Grave um vídeo tocando Israel´s Son e nos envie!

    00:00 / 00:00
    Outros vídeos desta música
    Repetir Qualidade Automático
    Outros vídeos desta música
    00:00 / 00:00
    Automático

    Cifra Club Pro

    Aproveite o Cifra Club com benefícios exclusivos e sem anúncios
    Cifra Club Pro
    Aproveite o Cifra Club com benefícios exclusivos e sem anúncios
    OK