Cifra Club

Luv Your Life

Silverchair

Tab de baixo: Principal
 ( Riff: 1 )

G:-------------------------------------------------------------------|
D:-------------------------------------------------------------------|
A:-------------------------5-3----3----------3------3----------5-1---|
E:---3-------3-------1-3-5-------------1-3-5-------------1-3-5-------|

 ( Riff: 2 )

E:-------------------------------------------------------------------|
D:-------------------------------------------------------------------|
A:-3-3-3-3-3-3-3-3-3-3-3-------3-3-3-3-3-3-3-3-3-3-3-3-------3-3-3-3-|
E:-----------------------1-3-5-------------------------1-3-5---------|

G:---------------------------------|
D:---------------------------------|
A:3-3-3-3-3-3-3--------------------|
E:--------------1--1-1-1--1-1-1-1--|

 (Riff: 3 )

G:-------------------------------------------------------------------|
D:-------------------------------------------------------------------|
A:-------------------3-3-3-3--------------------3-3-3-3------------33|
E:3--3--0--3-5-1--1-1--------3--3--0--3-5-1--1-1--------3--3--0-3-5--|

G:-------------------------------------|
D:-------------------------------------|
A:33-------------------3-3-3-3---3-----|
E:---3--3--0-3-5-1--1-1----------------|

  *Depois desse riff à uma pausa
 
  (Riff 4 )
                  
G:----------------------------------------------------------------|
D:----------------------------------------------------------------|
A:6-6-6-6-6-6-6-6-6-6-6-6-6-6-6-6---------------------------------|
E:--------------------------------1-1-1-1-1-1-1-1-1-1-1-1-1-1-1-1-|

G:----------------------------------------------------------------|
D:----------------------------------------------------------------|
A:6-6-6-6-6-6-6-6-6-6-6-6-6-6-6-6---------------------------------|
E:--------------------------------1-1-1-1-1-1-1-1-1-1-1-1-1-1-1-1-|

G:--------------------------------|
D:--------------------------------|
A:--------------------------------|
E:6---------------8---------------|

  ( Riff 5 )

G:-------------------------------------|
D:-------------------------------------|
A:----4-4-4-4-4-4-4-4------------------|
E:1-3------------------2--2-2--1-3-5---|
 
G:-------------------------------------|
D:------------5-5----------------------| ( 4x )
A:3-3-3-3-3-3--------------------------|
E:----------------1-1-1-1--3h5-3-1-----|

  (Riff 6 )

G:------------------|
D:------------------|
A:2-2-2-1-----------|
E:--------1-1-1-1---|
  
  ( Outro )

G:------------------|
D:------------------|  Termina
A:------------------|
E:2-3-4-1-2-3-------|


 (Riff 3 ) Repetir em 2':53"

 (Riff 2 ) Repetir em 3':17"

 (Riff 4 ) Repetir em 3':57"


Obs: Esta música não é difícil de ser tocada, basta prestar atenção nos riffs
adequadamente e escutar à música.



_______________________________________________________
Contribuição: Jonathan de Souza Passos(3606 - 4309)
00:00 / 00:00
Outros vídeos desta música
Repetir
Outros vídeos desta música
Composição de Daniel Johns
1.477 exibições

0 comentários

Ver todos os comentários

Conseguiu tocar?

0 Tocaram 0 Ainda não

Grave um vídeo tocando Luv Your Life e nos envie!

Entre para oCifra Club PRO

Tenha acesso a benefícios exclusivos no App e no Site

  • Chega de anúncios

  • Prioridade de compra em lançamentos

  • Mais recursos no app do Afinador

  • Atendimento Prioritário

  • Descontos nos produtos Cifra Club

  • Ajude a produzir mais conteúdo

00:00 / 00:00

Cifra Club Pro

Aproveite o Cifra Club com benefícios exclusivos e sem anúncios
Cifra Club Pro
Aproveite o Cifra Club com benefícios exclusivos e sem anúncios
OK