Cifra Club

Al final de este viaje

Silvio Rodriguez

Cifra: Principal (violão e guitarra)
tom: C
Introducción


E|----0-0-0-0-------------0-h3-p0----------| |-----0-0-0-0-------------0-h3-p0----------||
B|--1-1-1-1-1--------1-h3---------1--------| |---1-1-1-1-1--------1-h3---------1--------||
G|--0-0-0-0-0------2----------------2--0---| |---0-0-0-0-0------2----------------2--0---||
D|--2-2-2-2-2-0-h3-------------------------| |---2-2-2-2-2-0-h3-------------------------||
A|----3-3-3-3----------------------------3-| |-----3-3-3-3----------------------------3-||
E|----0-0-0-0-------------------------3----| |-----0-0-0-0-------------------------3----||

E|----0-0-0-0-------------0-h3-p0---------1-1-1-0-0-0---3-3-3---8--8--8----| |
B|--1-1-1-1-1--------1-h3---------1-------3-3-3-1-1-1---3-3-3---8--8--8----| |
G|--0-0-0-0-0------2----------------2-----0-0-0-0-0-0---0-0-0---9--9--9----| |
D|--2-2-2-2-2-0-h3--------------------0---0-0-0-0-0-0---0-0-0---10-10-10---| |
A|----3-3-3-3-------------------------------------------2-2-2---10-10-10---| |
E|----0-0-0-0---------------------------3-------------3-------8------------| |

E|-8--8--8--8--8--8--8--8----1-1-1-----------------| |
B|-8--8--8--8--8--8--8--8----1-1-1-----------------| |
G|-9--9--9--9--9--9--9--9----2-2-2-----------------| |
D|-10-10-10-10-10-10-10-10---3-3-3---2-p0-2-p0-----| |
A|-10------------------------3-3-3-------------3---| |
E|-8-----------------------1-------3---------------| |


Aquí comienza la primera estrofa, y se acompaña así:


"...Al   final    de   este   viaje en la vida quedara, nuestros cuerpos hinchados

E|----0-0-0-0-------------0-h3-p0----------| |-----0-0-0-0-------------0-h3-p0----------||
B|--1-1-1-1-1--------1-h3---------1--------| |---1-1-1-1-1--------1-h3---------1--------||
G|--0-0-0-0-0------2----------------2--0---| |---0-0-0-0-0------2----------------2--0---||
D|--2-2-2-2-2-0-h3-------------------------| |---2-2-2-2-2-0-h3-------------------------||
A|----3-3-3-3----------------------------3-| |-----3-3-3-3----------------------------3-||
E|----0-0-0-0-------------------------3----| |-----0-0-0-0-------------------------3----||


   de ir              A    A      muerte , al odio   al     borde   del  mar..."

E|----0-0-0-0-------------0-h3-p0--------| |---1-1-1-----0-0-0-----3-3-3---1--s3--3-3---||
B|--1-1-1-1-1--------1-h3---------1------| |---1-1-1-----0-0-0-----3-3-3---1--s3--3-3---||
G|--0-0-0-0-0------2----------------2----| |---2-2-2-----1-1-1-----4-4-4---2--s4--4-4---||
D|--2-2-2-2-2-0-h3--------------------0--| |---3-3-3-----2-2-2-----5-5-5---3--s5--5-5---||
A|----3-3-3-3----------------------------| |---3-3-3-----2-2-2-----5-5-5---3--s5--5-5---||
E|----0-0-0-0----------------------------| |-1---------0---------3---------1--s5--5-5---||


"...Al   final   de   este   viaje   en   la  vida quedará, nuestro rastro invitando a


E|----0-0-0-0-------------0-h3-p0----------| |-----0-0-0-0-------------0-h3-p0----------||
B|--1-1-1-1-1--------1-h3---------1--------| |---1-1-1-1-1--------1-h3---------1--------||
G|--0-0-0-0-0------2----------------2--0---| |---0-0-0-0-0------2----------------2--0---||
D|--2-2-2-2-2-0-h3-------------------------| |---2-2-2-2-2-0-h3-------------------------||
A|----3-3-3-3----------------------------3-| |-----3-3-3-3----------------------------3-||
E|----0-0-0-0-------------------------3----| |-----0-0-0-0-------------------------3----||


    vivir,      por   lo    menos   por     eso   es   que estoy  aquí..."

E|----0-0-0-0-------------0-h3-p0--------| |---1-1-1-----0-0-0-----3-3-3---1--s3--3-3---||
B|--1-1-1-1-1--------1-h3---------1------| |---1-1-1-----0-0-0-----3-3-3---1--s3--3-3---||
G|--0-0-0-0-0------2----------------2----| |---2-2-2-----1-1-1-----4-4-4---2--s4--4-4---||
D|--2-2-2-2-2-0-h3--------------------0--| |---3-3-3-----2-2-2-----5-5-5---3--s5--5-5---||
A|----3-3-3-3----------------------------| |---3-3-3-----2-2-2-----5-5-5---3--s5--5-5---||
E|----0-0-0-0----------------------------| |-1---------0---------3---------1--s5--5-5---||


Con estos acordes se acompaña la parte "somos prehistoria..." hasta "...
estos años son el pasado del ..."

E|-3----3----3-| |
B|-1----1----3-| |
G|-2----2----0-| |
D|-0----1----0-| |
A|-3----3----2-| |
E|-0----1----3-| |

y sigue





E|-----0---0----0-----0----------1-1-1-1--2--2--2--2---4---4---4---4--2--2--2--2---| |
B|-----0---0----0-----0----------1-1-1-1--1--1--1--1---4---4---4---4--1--2--2--2---| |
G|-----0---0----0-----0----------2-2-2-2--2--2--2--2---5---5---5---5--2--2--2--2---| |
D|-----2---2-p0-2-p0--2----------3-3-3-3--1--1--1--1---4---4---4---4--1--1--1--1---| |
A|-----2---2----2-----2----------3-3-3-3--0--0--0--0---6---6---6---6--0--0--0--0---| |
E|-----0---0----0-----0----------1-1-1-1--0--0--0--0---4---4---4---4--0--0--0--0---| |


   te        dibuja     en el porvenir son la verdad o el fin... son Dios

E|--1--1-1-1-p0--1-p0--0--0-0-0-0-0-0-0-0-0--------4---3----2--2------3--3--3----|
B|--3--3-3-3-----3-----2--2-2-2-0-0-1-1-1-1--------3---2----1--3------3--3--3----|
G|--2--2-2-2-----2-----2--2-2-2-0-0-2-2-2-2--------4---3----2--2------4--4-h5----|
D|--0--0-0-0-----------2--2-2-2-0-0-0-0-0-0--------3---2----1--0------5--5--3----|
A|--0--0-0-0-----------0--0-0-0-2-3-3-3-3-3--------0---0----0--0------5--5--5----|
E|--0--0-0-0-----------0--0-0-0-0-0-0-0-0-0--------0---0----0--0------3--3--3----|


Bueno la idea del rasgueo puede variar al gusto, después de
 lo que sigue se repite todo en la guitarra, y les anoto la
 letra nadamás, recuerden que antes de tocar todo el acorde se toca primero el bajo-

             F       C       Dm  Dm/D O   G   
        "..quedamos los que puedan       sonreir**...

**Aquí lleva un ligado que es así:

E|-------------------------| |
B|-------------------------| |
G|-------------------------| |
D|-------------------------| |
A|-----0-2-5-2-0-h2-p0-----| |
E|-0-3-----------------3---| |


               F      C       Dm   Dm/D O      G   
        ...en medio de    la muerte   en plena luz   .....

(aquí se acompaña con la parte de guitarra "a la muerte, al odio...etc.)
        ... en plena luz ( Bis)


aquí va la letra de lo que sigue y el final


"... Al final de este viaje en la vida quedará una cura de
timepo y amor, una gasa que envuelva un viejo dolor...
...Al final de este viaje en la vida quedará nuestros
cuerpos tendidos al sol como sábanas blancas depués del
amor...

...Al final del viaje esta el horizonte, al final del viaje
partiremos de nuevo, al final del viaje comienza un
camino... otro buen camino... que seguir desclazos contando
 la arena... al final del viaje estamos tu y yo intactos ...
quedamos los que puedan sonreír en medio de la
muerte, en plena luz..."


     G7                                                              C  
"...En plena luz.........................................................................."
.
E|----0-0-0-0-------------0-h3-p0----------| |-----0-0-0-0-------------0-h3-p0----------||
B|--1-1-1-1-1--------1-h3---------1--------| |---1-1-1-1-1--------1-h3---------1--------||
G|--0-0-0-0-0------2----------------2--0---| |---0-0-0-0-0------2----------------2--0---||
D|--2-2-2-2-2-0-h3-------------------------| |---2-2-2-2-2-0-h3-------------------------||
A|----3-3-3-3----------------------------3-| |-----3-3-3-3----------------------------3-||
E|----0-0-0-0-------------------------3----| |-----0-0-0-0-------------------------3----||
00:00 / 00:00
Outros vídeos desta música
Repetir
Outros vídeos desta música
Composição de Silvio Rodríguez
87 exibições
    • ½ Tom
    • A
    • Bb
    • B
    • C
    • Db
    • D
    • Eb
    • E
    • F
    • F#
    • G
    • Ab
  • Adicionar à lista

    0 comentários

    Ver todos os comentários

    Conseguiu tocar?

    0 Tocaram 0 Ainda não

    Grave um vídeo tocando Al final de este viaje e nos envie!

    00:00 / 00:00

    Cifra Club Pro

    Aproveite o Cifra Club com benefícios exclusivos e sem anúncios
    Cifra Club Pro
    Aproveite o Cifra Club com benefícios exclusivos e sem anúncios
    OK