Cifra Club

Esto no es una Elegia

Silvio Rodriguez

Cifra: Principal (violão e guitarra)
tom: Dm
(Este arpegio de repite en toda la estrofa)
       Asus4        Asus4/C              E7
E|--------0--|--0-----0--|--0-----0--|--0-----0----|
B|------3----|------3----|-----3-----|-----3-------|
G|----2------|----2------|----2------|----1--------|
D|-----------|-----------|-----------|-------------|
A|--0--------|--3--------|--2--------|-------------|
E|-----------|-----------|-----------|--0----------|



1)
     Asus4 Asus4/C                   E7      Asus4...
            Tú me recuerdas el prado de los soñadores
     Asus4 Asus4/C                       E7          Asus4...
            El muro que nos separa del mar, si es de noche


(Este es el arpegio para la siguiente estrofa y luego repite el anterior arpegio)
        Dm7                Dm7              Dm
E|-------1---1---1--------1---1---1--------1---1---1----------|
B|-------1---1---1--------2---2---2--------3---3---3----------|
G|-----2---2---2---2----2---2---2---2----2---2---2---2--------|
D|--0-----------------0----------------0----------------------|
A|------------------------------------------------------------|
E|------------------------------------------------------------|

2)
     Dm7                    Dm7               Dm
         Tú me recuerdas sentada, ciertos sentimientos
                       E7           Asus4...
     Qué nunca se sabe que traen en las alas
        E7          Asus4...
     Si vivos o muertos,
     si vivos o muertos


3)
     A               [G#   G]  D/F#      Dm
         Me quito el rostro y lo doblo
            G7       C   [G]F
     encima del pantalón
                          Bb
     Si no he de decir tu nombre,
                   
     si ajeno se esconde
                    E7
     No quiero expresión
     Bm         F#m     Bb        F          Gm F
     Suelen mis ojos tener como impresos sus sueños,
          E7   A4...
     Risue-e-ños

     1)
     Tú me recuerdas las calles de La Habana Vieja
     La Catedral sumergida en su baño de tejas

     2)
     Tú me recuerdas las cosas, no se, las ventanas
     Donde los cantores nocturnos cantaban
     amor a La Habana, amor a La Habana

     3)
     Esto no es una elegía, ni es un romance, ni un verso
     Más bien una acción de gracias
     Por darle a mis ansias razón para un beso
     Una modesta corona encontrada en la aurora

     1)
     Tú me recuerdas el mundo de un adolescente
     Un seminiño asustado, mirando a la gente
     2)
     Un ángel interrogado, un sueño acostado
     La maldición, la blasfemia de un continente
     Y un poco de muerte, y un poco de muerte
Composição de Silvio Rodríguez
8 exibições
    • ½ Tom
    • Am
    • Bbm
    • Bm
    • Cm
    • C#m
    • Dm
    • Ebm
    • Em
    • Fm
    • F#m
    • Gm
    • G#m
  • Adicionar à lista

    0 comentários

    Ver todos os comentários

    Conseguiu tocar?

    0 Tocaram 0 Ainda não

    Grave um vídeo tocando Esto no es una Elegia e nos envie!

    00:00 / 00:00
    Outros vídeos desta música
    Repetir Qualidade Automático
    Outros vídeos desta música
    00:00 / 00:00
    Automático

    Cifra Club Pro

    Aproveite o Cifra Club com benefícios exclusivos e sem anúncios
    Cifra Club Pro
    Aproveite o Cifra Club com benefícios exclusivos e sem anúncios
    OK