Cifra Club

La gota de rocío

Silvio Rodriguez

Cifra: Principal (violão e guitarra)
tom: G
Intro:
E|----------------------------------|
B|-----------3-3-x-1------1-3-x-3---|
G|---0-----0---2-x-0-----0--2-x-0---|
D|-----0-------0-x-2-0--2---0-x-0-0-|
A|---------------------3------------|
E|-3-----3----------------------3---|

E|--------------------------------|
B|---------3-3-x-1------1-3-x-3---|
G|-------0---2-x-0-----0--2-x-0---|
D|-----------0-x-2-0--2---0-x-0-0-|
A|-------------------3------------|
E|-----3----------------------3---|

E|---------------------------------------------|
B|--------3-3-x-1------1-3-x-3-------3-3-x-1---|
G|------0---2-x-0-----0--2-x-0-----0---2-x-0---|
D|------------x-2-0--2-----x---0---------x-2-0-|
A|------------------3--------------------------|
E|----3----------------------3---3-------------|

Versos:
E|----------------------------|
B|-----1-2-x-3------3-3-x-1---|
G|---0---3-x-0----0---2-x-0---|
D|-------0-x-0-0------0-x-2-0-|
A|-3--------------------------|
E|-----------3---3------------|

Despues del verso: 'Que encendi su corazon'
E|---0-x-2-x-3-----3-x-2-x-0---|
B|---1-x-3-x-3-----3-x-3-x-1---|
G|---0-x-2-x-0-----0-x-2-x-0---|
D|-------0-----0-------0-----0-| x2
A|-3-----------------------3---|
E|-----------3---3-------------|

En la ultima estrofa se juega con los 2 asi:
E|---------------------2-x-----|
B|-----1-2-x-3-------3-3-x-1---|
G|---0---3-x-0-----0---2-x-0---|
D|-------0-x---0-----------2-0-|
A|-3---------------------------|
E|-----------3---3-------------|

E|-----------------3-x-2-x-0-|
B|-----1-2-x-3-----3-x-3-x-1-|
G|---0---3-x-0-----0-x-2-x-0-|
D|-------0-x---0-------0-----|
A|-3-----------------------3-|
E|-----------3---3-----------|

E|----------------------------|
B|-----1-2-x-3------3-3-x-1---|
G|---0---3-x-0----0---2-x-0---|
D|-------0-x---0------0-x-2-0-|
A|-3--------------------------|
E|-----------3---3------------|

E|---0-x-2-x-3-----------------|
B|---1-x-3-x-3-------3-3-x-1---|
G|---0-x-2-x-0-----0---2-x-0---|
D|-------0-----0-------0-x-2-0-|
A|-3---------------------------|
E|-----------3---3-------------|

E|----------------------------|
B|-----1-2-x-3------3-3-x-1---|
G|---0---3-x-0----0---2-x-0---|
D|-------0-x-0-0------0-x-2-0-| x3
A|-3--------------------------|
E|-----------3---3------------|

E|-------------|
B|-----1-2-x-3-|
G|---0---3-x-0-|
D|-------0-x---|
A|-3-----------|
E|-----------3-|

Esta cancion se la quiero a dedicar a Cristina Macias,
Sofía Brolo y Marta Méndez.Las quiero mucho...
                              -el peli-
Composição de Silvio Rodríguez
109 exibições
    • ½ Tom
    • A
    • Bb
    • B
    • C
    • Db
    • D
    • Eb
    • E
    • F
    • F#
    • G
    • Ab
  • Adicionar à lista

    0 comentários

    Ver todos os comentários

    Conseguiu tocar?

    0 Tocaram 0 Ainda não

    Grave um vídeo tocando La gota de rocío e nos envie!

    00:00 / 00:00
    Outros vídeos desta música
    Repetir Qualidade Automático
    Outros vídeos desta música
    00:00 / 00:00
    Automático

    Cifra Club Pro

    Aproveite o Cifra Club com benefícios exclusivos e sem anúncios
    Cifra Club Pro
    Aproveite o Cifra Club com benefícios exclusivos e sem anúncios
    OK