Ojalá

Silvio Rodriguez

Composição de: Silvio Rodríguez
tom: G
Cuerpo  cuando    caigan
Caigan en mi espalda
Voooz
Taaal
Pasos
Flores

E-|------------10---------------9----------------8---------------7-------------|
B-|---------10-------10------10------10-------10------10------10------10-------|
G-|------10-------10------10------10-------10------10------10------10----------|
D-|---0-----------------0----------------0---------------0---------------------|
A-|----------------------------------------------------------------------------|
E-|----------------------------------------------------------------------------|

Para   que  no  las puedas  convertir en cris-
Tante   la palabra    precisa  la sonrisa per-

E-|--------8------------8-----------8------------8-----------------------------|
B-|------8-----8------8-----8-----8-----8------8-----8-------------------------|
G-|----9-----9------9-----9-----9-----9------9-----9---------------------------|
D-|--------------10-----------------------10-----------------------------------|
A-|----------------------------------------------------------------------------|
E-|--8------------------------8------------------------------------------------|

E-|--------7------------7-----------5-----------5-----------5-----------4------|
B-|------8-----8------8-----8-----5-----5-----5-----5-----6-----6-----5-----5--|
G-|----9-----9------9-----9-----6-----6-----6-----6-----7-----7-----6-----6----|
D-|---------------9-----------------------7------------------------------------|
A-|--7------------------------------------------------5-----------4------------|
E-|---------------------------5------------------------------------------------|

E-|--------2-----------2-----------5-----------5-----------3-----------2-------|
B-|------3-----3-----3-----3-----5-----5-----5-----5-----3-----3-----2-----2---|
G-|----4-----4-----4-----4-----6-----6-----6-----6-----4-----4-----3-----3-----|
D-|--------------------------------------7-------------------------------------|
A-|--2-----------0-------------------------------------------------------------|
E-|--------------------------5-----------------------3-----------2-------------|

Ti                                                      a tu viejo

E-|--------2-----------2-----------0---------0-----0-------1-----------1-------|
B-|------3-----3-----3-----3-----0-----0---0-----0-------3-----3-----3-----3---|
G-|----4-----4-----4-----4-----1-----1---2-----1-------2-----2-----2-----2-----|
D-|--------------------------------------------------0-------------------------|
A-|--2-----------0-----------------------------------------------3-------------|
E-|--------------------------0-------------------------------------------------|

Tierra no te bese los
Gobierno de difuntos y

E-|--------0-----------0-------------------------------------------------------|
B-|------3-----3-----2-----2---------------------------------------------------|
G-|----0-----0-----2-----2-----------------------------------------------------|
D-|----------------------------------------------------------------------------|
A-|--1-----------0-------------------------------------------------------------|
E-|----------------------------------------------------------------------------|



E-|---------8--------------8------------3--------------------------------------|
B-|-------9------9-------9------9-----3-----3----------------------------------|
G-|----10-----10------10-----10-----4-----4------------------------------------|
D-|----------------10----------------------------------------------------------|
A-|--8-------------------------------------------------------------------------|
E-|-------------------------------3--------------------------------------------|

  Bb
Pronto
     D       Gm
Una luz cegadora
       Bb         D#
Un disparo de nieve
              F
Ojala por lo menos
                 Bb
Que te lleve la muerte
     D         Gm
Para no verte tanto
      Bb        D#
Para no verte siempre

En todos los segundos
Página 1 / 1

Letras e título
Acordes e artista

resetar configurações
OK