Cifra Club

Pequeña Serenata Diurna

Silvio Rodriguez

Cifra: Principal (violão e guitarra)
tom: A
D||-----------------|----------------------|-----------|
A||-----------------|----------------------|-----------|
E||-<12>------------|----------------------|-----------|


||--10-8-10-8-7h8p7-|----7-10/12-10-8-7----|-----------|
||------------------|-10----------------8--|---7-7h8-7-|
||------------------|----------------------|-9---------|
||------------------|----------------------|-----------|
||------------------|----------------------|-----------|
||------------------|----------------------|-----------|

||------------------|7h8p7----7-10-8h10p8p7|----10-8h10p8h7--|
||----7-7h8-7-8-10--|------10--------------|-10------------10|
||--9---------------|----------------------|-----------------|
||------------------|----------------------|-----------------|
||------------------|----------------------|-----------------|
||------------------|----------------------|-----------------|

||------------------|----------------------|------|
||------7-7-7h8p7---|--8-7---7-------------|------|
||----------------9-|------9---9-8---------|------|
||------------------|--------------9-7-----|------|
||------------------|------------------10--|------|
||------------------|----------------------|------|

E-||----------|| |-------|---------|----(7----|-------|---------|
B-||----------|| |-------|---------|----)7----|-------|---------|
G-||--repite--|| |--5/7--|--10p12--|----(5----|--1h4--|--<12>---|
D-||----------|| |-------|---------|----)6----|-------|---------|
A-||----------|| |-------|---------|----(6----|-------|---------|
E-||----------|| |-------|---------|----)7----|-------|---------|
                  desliza   jala     arpegiado  Hammer Armónico
Composição de Silvio Rodríguez
125 exibições
    • ½ Tom
    • A
    • Bb
    • B
    • C
    • Db
    • D
    • Eb
    • E
    • F
    • F#
    • G
    • Ab
  • Adicionar à lista

    0 comentários

    Ver todos os comentários

    Conseguiu tocar?

    0 Tocaram 0 Ainda não

    Grave um vídeo tocando Pequeña Serenata Diurna e nos envie!

    00:00 / 00:00
    Outros vídeos desta música
    Repetir Qualidade Automático
    Outros vídeos desta música
    00:00 / 00:00
    Automático

    Cifra Club Pro

    Aproveite o Cifra Club com benefícios exclusivos e sem anúncios
    Cifra Club Pro
    Aproveite o Cifra Club com benefícios exclusivos e sem anúncios
    OK