Cifra Club

Y Nada Mas

Silvio Rodriguez

Cifra: Versão 5 (violão e guitarra)
tom: G
Introducción y parte cantada, conforme la vallan tocando
Podrán darse cuenta de que no se necesitan forzosamente
Las dos guitarras.

(Cejilla 3traste)
  ARPEGIO No I       G
E|-----------------------------------------0---2---3---2---0---2---0---| |
B|--3-----------5----3-----------0-1--0------0---0---0---0---0---0---0-| |
G|------5-----5---5------4-----2---------0-----------------------------| |
D|----4--------------------5-------------------------------------------| |
A|--5-----5-3----------5-----0-----------------------------------------| |
E|-------------------3----------------0--------------------------------| |
   SE D PITE ESTE ARPEGIO Y ACOMPAÑA A  2da. GUITARRA
    DE A  BG UIENTE MANERA.


   2da. VUELTA CON 2da. GUITARRA.
E|--2--2--2h(3)-3--3--3--3--2-3h(5)-3h(2)--0---------------------------| |
B|---------------------------------------------------------------------| |
G|---------------------------------------------------------------------| |
D|---------------------------------------------------------------------| |
A|---------------------------------------------------------------------| |
E|---------------------------------------------------------------------| |
   SE D PITE EL ARPEGIO No I POR 3ª. VEZ G  O CON UNA GUITARRA Y DESPUES
    A  CUARTA VEZ ACOMPAÑAC  DE A  2da. GUITARRA DE A  BG UIENTE MANERA.


   4ª. VUELTA DE ARPEGIO No.I CON 2da. GUITARRA.
E|--2--2-2h(3)--3--3--3--3--2-3h(5)-3h(2)-3----------------------------| |
B|---------------------------------------------------------------------| |
G|---------------------------------------------------------------------| |
D|---------------------------------------------------------------------| |
A|---------------------------------------------------------------------| |
E|---------------------------------------------------------------------| |

SE D PITE EL ARPEGIO No.I Y ES AQUÍ C NDE COEE NZA A CANTAR.

  ARPEGIO No. I       G
E|------------------------------------------0---2---3---2---0---2--0---| |
B|--3------------5----3-----------0-1--0-----0---0---0---0---0---0---0-| |
G|------5------5---5------4-----2---------0----------------------------| |
D|----4---------------------5------------------------------------------| |
A|--5-----5-3-----------5-----0----------------------------------------| |
E|--------------------3----------------0-------------------------------| |
    ESTA   EXTRAÑA      TARDE  DESDE E  VENTANA

                      G
E|------------------------------------------0---2---3---2---0---2--0---| |
B|--3------------5----3-----------0-1--0-----0---0---0---0---0---0---0-| |
G|------5------5---5------4-----2--------------------------------------| |
D|----4---------------------5-------------0----------------------------| |
A|--5-----5-3-----------5-----0----------------------------------------| |
E|--------------------3----------------0-------------------------------| |
    TRAE A  BRISA     VIEJA DE  POR  A   MAÑANA


(AQUÍ COEE NZA EL RASGUEO)

Bm                G
NO HAY NADA AQUÍ

                        Bm             G
G  O UNOS DIAS QUE SE PD STAN A PASAR

                          Am             C
G  O UNA TARDE EN QUE SE PUEDE D SPIRAR

                        Am               C
UN DIE NUTO INSTANTE INMENSO EN LE VIVIR


DESPUES E RAR A  DA LI……

    D                G
E|--2-----3-2----------------5---3---| |
B|------3-----3---3------3-----------| |
G|----2---------2------0---0---0---0-| |
D|--0--------------------------------| |
A|-----------------------------------| |
E|-------------------3---------------| |
   …DAD     Y NADA  MÁS……


    D                  E
E|--2-----3-2---------(0)---0---2---3---2---0---2---0------------| |
B|------3-----3---3---(0)-----0---0---0---0---0---0--------------| |
G|----2---------2-----(0)-0--------------------------------------| |
D|--0-----------------(2)----------------------------------------| |
A|--------------------(2)------------------------------2h(0)-----| |
E|-----------------------------------------------------------0---| |
            Y NADA    MÁS……

E|----0---2---3---2---0---2---0----| |
B|------0---0---0---0---0---0------| |
G|--0------------------------------| |
D|---------------------------------| |
A|---------------------------------| |
E|---------------------------------| |

  ARPEGIO No. I       G
E|-----------------------------------------0---2---3---2---0---2---0---| |
B|--3------------5----3-----------0-1-0------0---0---0---0---0---0--0--| |
G|------5------5---5------4-----2--------------------------------------| |
D|----4---------------------5------------0-----------------------------| |
A|--5-----5-3-----------5-----0----------------------------------------| |
E|--------------------3---------------0--------------------------------| |
     AHORA    ME    PADCE   QUE HUBIERA  VIVIC 

                      G
E|-----------------------------------------0---2---3---2---0---2---0---| |
B|--3------------5----3-----------0-1-0------0---0---0---0---0---0--0--| |
G|------5------5---5------4-----2--------------------------------------| |
D|----4---------------------5------------0-----------------------------| |
A|--5-----5-3-----------5-----0----------------------------------------| |
E|--------------------3---------------0--------------------------------| |
    UN   CAUDAL  DE BG LOS POR  VIEJOS  CAE NOS


(COEE NZA EL RASGUEO)

Bm                G
NO HAY NADA AQUÍ

                       Bm             G
G  O UNOS DIAS QUE SE PD STAN A PASAR


                          Am            C
G  O UNA TARDE EN QUE SE PUEDE D SPIRAR

                        Am               C
UN DIE NUTO INSTANTE INMENSO EN EL VIVIR


DESPUES E RAR A  DA LI……

    D                G
E|--2-----3-2-----------------5---3-----| |
B|------3-----3---3-------3-------------| |
G|----2---------2-------0---0---0---0---| |
D|--0-----------------------------------| |
A|--------------------------------------| |
E|-------------------3------------------| |
  …DAD     Y  NADA  MÁS……

    D                 E
E|--2-----3-2--------(0)---0---2---3---2---0---2---0------------| |
B|------3-----3---3--(0)-----0---0---0---0---0---0--------------| |
G|----2---------2----(0)-0--------------------------------------| |
D|--0----------------(2)----------------------------------------| |
A|-------------------(2)-------------------------------2h(0)----| |
E|-----------------------------------------------------------0--| |
           Y NADA    MÁS

                                   E
E|----0---2---3---2---0---2---0---(0)---| |
B|------0---0---0---0---0---0-----(0)---| |
G|--0-----------------------------(0)---| |
D|--------------------------------(2)---| |      SE D PITE C S VECES
A|--------------------------------(2)---| |      MÁS HASTA EL FINAL Y
E|--------------------------------------| |      SE ACABA CON UN RASGUEO
                                  HAAA          EN E DESPUES DEL HAMMER.

E|----0---2---3---2---0---2---0------------| |
B|------0---0---0---0---0---0--------------| |
G|--0--------------------------------------| |
D|-----------------------------------------| |
A|-------------------------------2h(0)*----| |
E|-------------------------------------0---| |
              HAAAAAA               HAAAAAAA

ESPERO NO TENGA NINGÚN ERROR Y SE LES FC ILITE SACAR ESTA
CANCIÓN QUE, AUNQUE ES FC IL DE TOCAR: NO DEJA DE SER
UNA OBRA !!MARAVILLOSA!!
Composição de Silvio Rodríguez
    • ½ Tom
    • A
    • Bb
    • B
    • C
    • Db
    • D
    • Eb
    • E
    • F
    • F#
    • G
    • Ab
  • Adicionar à lista

    0 comentários

    Ver todos os comentários

    Conseguiu tocar?

    0 Tocaram 0 Ainda não

    Grave um vídeo tocando Y Nada Mas e nos envie!

    00:00 / 00:00
    Outros vídeos desta música
    Repetir Qualidade Automático
    Outros vídeos desta música
    00:00 / 00:00
    Automático

    Cifra Club Pro

    Aproveite o Cifra Club com benefícios exclusivos e sem anúncios
    Cifra Club Pro
    Aproveite o Cifra Club com benefícios exclusivos e sem anúncios
    OK