Duvido Você Não Tomar Uma

Simone e Simaria

Composição de: Tierry
tom: Eb (forma dos acordes no tom de D ) Capotraste na 1ª casa
Intro 2x: D A Em G              (O solo esta escrito sem o uso do capotraste)

E|----------------------------------------------------|
B|--11-11-11-11-11-9-8h9------------------------------|
G|----------------------10----------------------------|
D|----------------------------------------------------|
A|----------------------------------------------------|
E|----------------------------------------------------|

E|---------------------------------------------------------------|
B|--11-11-11-11-11-9-8h9----------------------9-8----------------|
G|-----------------------10--10h12-8--------8----10-8-8h10-------| 
D|-----------------------------------8-8-10----------------------|
A|---------------------------------------------------------------|
E|---------------------------------------------------------------|

Primeira parte:
             D
Mas agora veja, diz que ta mudada
             Em                         G
Aposentou o copo não quer mais saber de álcool
              D
Disse que parou, que nunca mais beberia
            Em                   G         Em
Jurou pela vida, pela mãe, pela vô e pela tia

Pré-Refrão:
                  G
Mas é muita tentação 
D                          A               Em
O whatsapp tá chamando farras, festas e baladas
               G
Pra curar desilusão
    D                      A                   Em  A (D)
Ou por uma boa causa toda jura feita, será perdoada
      
Refrão 2x:

  D                     A                               Em
Quando a saudade maltratar vai lembrar da boca que era sua
   G                    D
Duvido você não tomar uma
                            A                               Em
Quando ouvir no rádio um modão ou no bar da esquina da sua rua
   G                    D
Duvido você não tomar uma


Solo 2x: D  A  Em  G

Primeira parte:

             D
Mas agora veja, diz que ta mudada
             Em                         G
Aposentou o copo não quer mais saber de álcool
              D
Disse que parou, que nunca mais beberia
            Em                   G         Em
Jurou pela vida, pela mãe, pela vô e pela tia

Pré-Refrão:
                  G
Mas é muita tentação 
D                          A               Em
O whatsapp tá chamando farras, festas e baladas
               G
Pra curar desilusão
    D                      A                   Em  A (D)
Ou por uma boa causa toda jura feita, será perdoada

Refrão 2x:

D                       A                               Em
Quando a saudade maltratar vai lembrar da boca que era sua
   G                    D
Duvido você não tomar uma
                            A                                Em
Quando ouvir no rádio um modão ou no bar da esquina da sua rua
   G                    D
Duvido você não tomar uma


Final: ( D  A  Em  G ) (2x)  D
Página 1 / 1

Letras e título
Acordes e artista

resetar configurações
OK