Cifra Club

Ele Não Pensa Em Você

Simone e Simaria

Cifra: Principal (violão e guitarra)
tom: Ab (forma dos acordes no tom de G) Capotraste na 1ª casa
[Intro] Em7  C  G  D
        Em7  C  G  D

[Riff]

E|------------------------------------------|
B|-/5--7/8--12\5~--/5--7/8--12\3~-----------|
G|------------------------------------------|
D|------------------------------------------|
A|------------------------------------------|
E|------------------------------------------|

E|------------------------------------------|
B|-/5--7/8--12\5~--/5--7/8--12\3~-----------|
G|------------------------------------------|
D|------------------------------------------|
A|------------------------------------------|
E|------------------------------------------|

[Primeira Parte]

Am7                 C                    G
    Não venha me pedir pra que eu te esqueça
                  D
Depois de fazer planos (de fazer planos)
Am7               C             G
    Você me prometeu uma vida cheia
                  D
De sonhos, sem engano

[Refrão]

Am7           C            G
    Os meus amigos me falaram 
      D
Que ele não serve pra você
Am7         C              G        D
    Lembra de quantas garotas que ele já fez sofrer
Am7          C
    Ele não vai mudar 
G             D
  Já deu pra perceber 
Am7           C
    Não vá se enganar 
G                     D
Ele tem dinheiro e poder

Ele não pensa em você

( Em7  C  G  D )
( Em7  C  G  D )

[Riff]

E|------------------------------------------|
B|-/5--7/8--12\5~--/5--7/8--12\3~-----------|
G|------------------------------------------|
D|------------------------------------------|
A|------------------------------------------|
E|------------------------------------------|

E|------------------------------------------|
B|-/5--7/8--12\5~--/5--7/8--12\3~-----------|
G|------------------------------------------|
D|------------------------------------------|
A|------------------------------------------|
E|------------------------------------------|

[Primeira Parte]

Am7                 C                    G
    Não venha me pedir pra que eu te esqueça
                  D
Depois de fazer planos (de fazer planos)
Am7               C             G
    Você me prometeu uma vida cheia
                  D
De sonhos, sem engano

[Refrão]

Am7           C            G
    Os meus amigos me falaram 
      D
Que ele não serve pra você
Am7         C              G        D
    Lembra de quantas garotas que ele já fez sofrer
Am7          C
    Ele não vai mudar 
G             D
  Já deu pra perceber 
Am7           C
    Não vá se enganar 
G                     D
Ele tem dinheiro e poder

Ele não pensa em você

[Final] Em7  C  G  D
        Em7  C  G  D
        Em7  C  G  D
        Em7  C  G  D

[Riff]

E|------------------------------------------|
B|-/5--7/8--12\5~--/5--7/8--12\3~-----------|
G|------------------------------------------|
D|------------------------------------------|
A|------------------------------------------|
E|------------------------------------------|

E|------------------------------------------|
B|-/5--7/8--12\5~--/5--7/8--12\3~-----------|
G|------------------------------------------|
D|------------------------------------------|
A|------------------------------------------|
E|------------------------------------------|
00:00 / 00:00
Outros vídeos desta música
Repetir
Outros vídeos desta música
Composição de Dilauri / Simaria
Colaboração e revisão:
  • Thiago Almeida
269 exibições
    • ½ Tom
    • A
    • Bb
    • B
    • C
    • Db
    • D
    • Eb
    • E
    • F
    • F#
    • G
    • Ab
  • Adicionar à lista

    0 comentários

    Ver todos os comentários

    Entre para oCifra Club PRO

    Tenha acesso a benefícios exclusivos no App e no Site

    • Chega de anúncios

    • Prioridade de compra em lançamentos

    • Mais recursos no app do Afinador

    • Atendimento Prioritário

    • Descontos nos produtos Cifra Club

    • Ajude a produzir mais conteúdo

    00:00 / 00:00

    Cifra Club Pro

    Aproveite o Cifra Club com benefícios exclusivos e sem anúncios
    Cifra Club Pro
    Aproveite o Cifra Club com benefícios exclusivos e sem anúncios
    OK