Cifra Club

Aprenda

Te Conheço Só de Olhar Na Sua Cara

Simone e Simaria

Cifra: Principal (violão e guitarra)
Tom: C#m
[Intro] C#m  
        A9  B9  C#m
        A9  B9  C#m

Parte 1 de 2

   C#m
E|---------------------------------------------------|
B|-------5-----4-----5-------------5-----4-----5-----|
G|-----6---6-----6-----6---------6---6-----6-----6---|
D|---6-------6-----6-----6-----6-------6-----6-----6-|
A|-4-------------------------4-----------------------|
E|---------------------------------------------------|

Parte 2 de 2 - 2X

   A9                        B9
E|---------------------------------------------------|
B|-------2-----0-----2-------------4-----2-----4-----|
G|-----2---2-----2-----2---------4---4-----4-----4---|
D|---2-------2-----2-----2-----4-------4-----4-----4-|
A|-0-------------------------2-----------------------|
E|---------------------------------------------------|

   C#m
E|---------------------------------------------------|
B|-------5-----4-----5-------------5-----4-----5-----|
G|-----6---6-----6-----6---------6---6-----6-----6---|
D|---6-------6-----6-----6-----6-------6-----6-----6-|
A|-4-------------------------4-----------------------|
E|---------------------------------------------------|

[Primeira Parte]

C#m                          A9
  Você põe o mel na minha boca
                               B9
Depois vem arrancando a minha roupa
                         C#m
Me faço refém do seu prazer
                         A9
Realiza as minhas fantasias
                          B9
Num misto de desejo e poesia

Você dentro de mim
           E  B/D#  C#m
Eu dentro de vo----cê 

[Pré-Refrão]

A9                         B9
É a minha pele vira minha roupa
                          E
O meu corpo vira a tua cama
     B/D#              C#m
E assim que a gente se ama
     A9   
Nós dois embaixo do chuveiro
 B9                        C#m
Somos um só corpo em dois seres

[Refrão]

    A9
Lá fora o mundo o gira
        B9                          C#m
E aqui dentro o tempo para pra nós dois
          A9                      B9
Eu te conheço só de olhar na tua cara
                                    C#m
Eu não nego fogo e você não deixa pra depois

          A9                      B9
Eu te conheço só de olhar na tua cara
                                    C#m
Eu não nego fogo e você não deixa pra depois

( A9  B9  C#m  A9  B9  C#m )

[Refrão]

    A9
Lá fora o mundo o gira
        B9                          C#m
E aqui dentro o tempo para pra nós dois
          A9                      B9
Eu te conheço só de olhar na tua cara
                                    C#m
Eu não nego fogo e você não deixa pra depois

          A9                      B9
Eu te conheço só de olhar na tua cara
                                    C#m
Eu não nego fogo e você não deixa pra depois

[Final] A9  B9  C#m  A9  B9  C#m 
        A9  B9  C#m
Composição de Gabriel Param / Nivardo Paz / Simaria
Colaboração e revisão:
  • Lucas Kappaun
1.034 exibições
    • ½ Tom
    • Am
    • Bbm
    • Bm
    • Cm
    • C#m
    • Dm
    • Ebm
    • Em
    • Fm
    • F#m
    • Gm
    • G#m
  • Adicionar à lista

    0 comentários

    Mostrar mais comentários

    Conseguiu tocar?

    0 Tocaram 0 Ainda não

    Grave um vídeo tocando Te Conheço Só de Olhar Na Sua Cara e mande pra gente!

    00:00 / 00:00
    outros vídeos desta música
    repetir qualidade Automático
    Outros vídeos desta música
    00:00 / 00:00
    Automático

    Cifra Club Pro

    Aproveite o Cifra Club com benefícios exclusivos e sem anúncios
    7 dias grátis
    Cifra Club Pro
    Aproveite o Cifra Club com benefícios exclusivos e sem anúncios
    7 dias grátis
    OK